  0
SECTION
  2
HEADER
  9
$ACADVER
  1
AC1014
  9
$ACADMAINTVER
 70
     9
  9
$DWGCODEPAGE
  3
ANSI_932
  9
$INSBASE
 10
0.0
 20
0.0
 30
0.0
  9
$EXTMIN
 10
192.0272007328567
 20
452.3527448860076
 30
0.0
  9
$EXTMAX
 10
4469.981387665226
 20
2369.640563461376
 30
0.0
  9
$LIMMIN
 10
0.0
 20
0.0
  9
$LIMMAX
 10
5000.0
 20
3000.0
  9
$ORTHOMODE
 70
     0
  9
$REGENMODE
 70
     1
  9
$FILLMODE
 70
     1
  9
$QTEXTMODE
 70
     0
  9
$MIRRTEXT
 70
     0
  9
$DRAGMODE
 70
     2
  9
$LTSCALE
 40
1.0
  9
$OSMODE
 70
    47
  9
$ATTMODE
 70
     1
  9
$TEXTSIZE
 40
2.5
  9
$TRACEWID
 40
1.0
  9
$TEXTSTYLE
  7
STANDARD
  9
$CLAYER
  8
STR
  9
$CELTYPE
  6
BYLAYER
  9
$CECOLOR
 62
   256
  9
$CELTSCALE
 40
1.0
  9
$DELOBJ
 70
     1
  9
$DISPSILH
 70
     0
  9
$DIMSCALE
 40
1.0
  9
$DIMASZ
 40
50.0
  9
$DIMEXO
 40
0.625
  9
$DIMDLI
 40
3.75
  9
$DIMRND
 40
0.0
  9
$DIMDLE
 40
0.0
  9
$DIMEXE
 40
1.25
  9
$DIMTP
 40
0.0
  9
$DIMTM
 40
0.0
  9
$DIMTXT
 40
60.0
  9
$DIMCEN
 40
2.5
  9
$DIMTSZ
 40
0.0
  9
$DIMTOL
 70
     0
  9
$DIMLIM
 70
     0
  9
$DIMTIH
 70
     0
  9
$DIMTOH
 70
     0
  9
$DIMSE1
 70
     0
  9
$DIMSE2
 70
     0
  9
$DIMTAD
 70
     1
  9
$DIMZIN
 70
     8
  9
$DIMBLK
  1
OPEN30
  9
$DIMASO
 70
     1
  9
$DIMSHO
 70
     1
  9
$DIMPOST
  1

  9
$DIMAPOST
  1

  9
$DIMALT
 70
     0
  9
$DIMALTD
 70
     3
  9
$DIMALTF
 40
0.03937007874016
  9
$DIMLFAC
 40
1.0
  9
$DIMTOFL
 70
     1
  9
$DIMTVP
 40
0.0
  9
$DIMTIX
 70
     0
  9
$DIMSOXD
 70
     0
  9
$DIMSAH
 70
     0
  9
$DIMBLK1
  1

  9
$DIMBLK2
  1

  9
$DIMSTYLE
  2
ISO-25-BRGK
  9
$DIMCLRD
 70
     0
  9
$DIMCLRE
 70
     0
  9
$DIMCLRT
 70
     0
  9
$DIMTFAC
 40
1.0
  9
$DIMGAP
 40
30.0
  9
$DIMJUST
 70
     0
  9
$DIMSD1
 70
     0
  9
$DIMSD2
 70
     0
  9
$DIMTOLJ
 70
     0
  9
$DIMTZIN
 70
     8
  9
$DIMALTZ
 70
     0
  9
$DIMALTTZ
 70
     0
  9
$DIMFIT
 70
     2
  9
$DIMUPT
 70
     0
  9
$DIMUNIT
 70
     2
  9
$DIMDEC
 70
     2
  9
$DIMTDEC
 70
     2
  9
$DIMALTU
 70
     2
  9
$DIMALTTD
 70
     3
  9
$DIMTXSTY
  7
STANDARD
  9
$DIMAUNIT
 70
     0
  9
$LUNITS
 70
     2
  9
$LUPREC
 70
     4
  9
$SKETCHINC
 40
1.0
  9
$FILLETRAD
 40
30.0
  9
$AUNITS
 70
     0
  9
$AUPREC
 70
     0
  9
$MENU
  1
.
  9
$ELEVATION
 40
0.0
  9
$PELEVATION
 40
0.0
  9
$THICKNESS
 40
0.0
  9
$LIMCHECK
 70
     0
  9
$BLIPMODE
 70
     0
  9
$CHAMFERA
 40
0.0
  9
$CHAMFERB
 40
0.0
  9
$CHAMFERC
 40
0.0
  9
$CHAMFERD
 40
0.0
  9
$SKPOLY
 70
     0
  9
$TDCREATE
 40
2453462.504568495
  9
$TDUPDATE
 40
2453465.556805729
  9
$TDINDWG
 40
0.1912317130
  9
$TDUSRTIMER
 40
0.1912315394
  9
$USRTIMER
 70
     1
  9
$ANGBASE
 50
0.0
  9
$ANGDIR
 70
     0
  9
$PDMODE
 70
     0
  9
$PDSIZE
 40
0.0
  9
$PLINEWID
 40
0.0
  9
$COORDS
 70
     1
  9
$SPLFRAME
 70
     0
  9
$SPLINETYPE
 70
     6
  9
$SPLINESEGS
 70
     8
  9
$ATTDIA
 70
     0
  9
$ATTREQ
 70
     1
  9
$HANDLING
 70
 22529
  9
$HANDSEED
  5
C4E
  9
$SURFTAB1
 70
     6
  9
$SURFTAB2
 70
     6
  9
$SURFTYPE
 70
     6
  9
$SURFU
 70
     6
  9
$SURFV
 70
     6
  9
$UCSNAME
  2

  9
$UCSORG
 10
0.0
 20
0.0
 30
0.0
  9
$UCSXDIR
 10
1.0
 20
0.0
 30
0.0
  9
$UCSYDIR
 10
0.0
 20
1.0
 30
0.0
  9
$PUCSNAME
  2

  9
$PUCSORG
 10
0.0
 20
0.0
 30
0.0
  9
$PUCSXDIR
 10
1.0
 20
0.0
 30
0.0
  9
$PUCSYDIR
 10
0.0
 20
1.0
 30
0.0
  9
$USERI1
 70
     0
  9
$USERI2
 70
     0
  9
$USERI3
 70
     0
  9
$USERI4
 70
     0
  9
$USERI5
 70
     0
  9
$USERR1
 40
0.0
  9
$USERR2
 40
0.0
  9
$USERR3
 40
0.0
  9
$USERR4
 40
0.0
  9
$USERR5
 40
0.0
  9
$WORLDVIEW
 70
     1
  9
$SHADEDGE
 70
     3
  9
$SHADEDIF
 70
    70
  9
$TILEMODE
 70
     1
  9
$MAXACTVP
 70
    48
  9
$PINSBASE
 10
0.0
 20
0.0
 30
0.0
  9
$PLIMCHECK
 70
     0
  9
$PEXTMIN
 10
0.0
 20
0.0
 30
0.0
  9
$PEXTMAX
 10
0.0
 20
0.0
 30
0.0
  9
$PLIMMIN
 10
0.0
 20
0.0
  9
$PLIMMAX
 10
12.0
 20
9.0
  9
$UNITMODE
 70
     0
  9
$VISRETAIN
 70
     1
  9
$PLINEGEN
 70
     0
  9
$PSLTSCALE
 70
     1
  9
$TREEDEPTH
 70
  3020
  9
$PICKSTYLE
 70
     1
  9
$CMLSTYLE
  2
STANDARD
  9
$CMLJUST
 70
     0
  9
$CMLSCALE
 40
20.0
  9
$PROXYGRAPHICS
 70
     1
  9
$MEASUREMENT
 70
     1
  0
ENDSEC
  0
SECTION
  2
CLASSES
  0
CLASS
  1
ACDBDICTIONARYWDFLT
  2
AcDbDictionaryWithDefault
  3
AutoCAD 2000
 90
        0
280
     0
281
     0
  0
CLASS
  1
ACDBPLACEHOLDER
  2
AcDbPlaceHolder
  3
AutoCAD 2000
 90
        0
280
     0
281
     0
  0
CLASS
  1
LAYOUT
  2
AcDbLayout
  3
AutoCAD 2000
 90
        0
280
     0
281
     0
  0
CLASS
  1
DICTIONARYVAR
  2
AcDbDictionaryVar
  3
AutoCAD 2000
 90
        0
280
     0
281
     0
  0
CLASS
  1
DIMASSOC
  2
AcDbDimAssoc
  3
"AcDbDimAssoc|Product Desc:     AcDim ARX App For Dimension|Company:          Autodesk, Inc.|WEB Address:      www.autodesk.com"
 90
        0
280
     0
281
     0
  0
CLASS
  1
LONG_TRANSACTION
  2
AcDbLongTransaction
  3
AutoCAD 2000
 90
        0
280
     0
281
     0
  0
CLASS
  1
LWPOLYLINE
  2
AcDbPolyline
  3
AutoCAD 2000
 90
        0
280
     0
281
     1
  0
CLASS
  1
HATCH
  2
AcDbHatch
  3
AutoCAD 2000
 90
        0
280
     0
281
     1
  0
CLASS
  1
XRECORD
  2
AcDbXrecord
  3
AutoCAD 2000
 90
        0
280
     0
281
     0
  0
CLASS
  1
LONG_TRANSACTION
  2
AcDbLongTransaction
  3
AutoCAD 2000
 90
        0
280
     0
281
     0
  0
CLASS
  1
LWPOLYLINE
  2
AcDbPolyline
  3
AutoCAD 2000
 90
        0
280
     0
281
     1
  0
CLASS
  1
HATCH
  2
AcDbHatch
  3
AutoCAD 2000
 90
        0
280
     0
281
     1
  0
CLASS
  1
XRECORD
  2
AcDbXrecord
  3
AutoCAD 2000
 90
        0
280
     0
281
     0
  0
CLASS
  1
LONG_TRANSACTION
  2
AcDbLongTransaction
  3
AutoCAD 2000
 90
        0
280
     0
281
     0
  0
CLASS
  1
LWPOLYLINE
  2
AcDbPolyline
  3
AutoCAD 2000
 90
        0
280
     0
281
     1
  0
CLASS
  1
HATCH
  2
AcDbHatch
  3
AutoCAD 2000
 90
        0
280
     0
281
     1
  0
CLASS
  1
XRECORD
  2
AcDbXrecord
  3
AutoCAD 2000
 90
        0
280
     0
281
     0
  0
CLASS
  1
LONG_TRANSACTION
  2
AcDbLongTransaction
  3
AutoCAD 2000
 90
        0
280
     0
281
     0
  0
CLASS
  1
LWPOLYLINE
  2
AcDbPolyline
  3
AutoCAD 2000
 90
        0
280
     0
281
     1
  0
CLASS
  1
HATCH
  2
AcDbHatch
  3
AutoCAD 2000
 90
        0
280
     0
281
     1
  0
CLASS
  1
XRECORD
  2
AcDbXrecord
  3
AutoCAD 2000
 90
        0
280
     0
281
     0
  0
CLASS
  1
LONG_TRANSACTION
  2
AcDbLongTransaction
  3
AutoCAD 2000
 90
        0
280
     0
281
     0
  0
CLASS
  1
LWPOLYLINE
  2
AcDbPolyline
  3
AutoCAD 2000
 90
        0
280
     0
281
     1
  0
CLASS
  1
HATCH
  2
AcDbHatch
  3
AutoCAD 2000
 90
        0
280
     0
281
     1
  0
CLASS
  1
XRECORD
  2
AcDbXrecord
  3
AutoCAD 2000
 90
        0
280
     0
281
     0
  0
ENDSEC
  0
SECTION
  2
TABLES
  0
TABLE
  2
VPORT
  5
8
330
0
100
AcDbSymbolTable
 70
     2
  0
VPORT
  5
C2A
330
8
100
AcDbSymbolTableRecord
100
AcDbViewportTableRecord
  2
*ACTIVE
 70
     0
 10
0.0
 20
0.0
 11
1.0
 21
1.0
 12
2503.293743202339
 22
1502.08352775472
 13
0.0
 23
0.0
 14
10.0
 24
10.0
 15
10.0
 25
10.0
 16
0.0
 26
0.0
 36
1.0
 17
0.0
 27
0.0
 37
0.0
 40
3179.719290536843
 41
1.580912863070539
 42
50.0
 43
0.0
 44
0.0
 50
0.0
 51
0.0
 71
     0
 72
  1000
 73
     1
 74
     3
 75
     0
 76
     0
 77
     0
 78
     0
  0
ENDTAB
  0
TABLE
  2
LTYPE
  5
5
330
0
100
AcDbSymbolTable
 70
     2
  0
LTYPE
  5
14
330
5
100
AcDbSymbolTableRecord
100
AcDbLinetypeTableRecord
  2
BYBLOCK
 70
     0
  3

 72
    65
 73
     0
 40
0.0
  0
LTYPE
  5
15
330
5
100
AcDbSymbolTableRecord
100
AcDbLinetypeTableRecord
  2
BYLAYER
 70
     0
  3

 72
    65
 73
     0
 40
0.0
  0
LTYPE
  5
16
330
5
100
AcDbSymbolTableRecord
100
AcDbLinetypeTableRecord
  2
CONTINUOUS
 70
     0
  3
Solid line
 72
    65
 73
     0
 40
0.0
  0
LTYPE
  5
122
330
5
100
AcDbSymbolTableRecord
100
AcDbLinetypeTableRecord
  2
CENTER
 70
     0
  3
Center ____ _ ____ _ ____ _ ____ _ ____ _ ____
 72
    65
 73
     4
 40
50.8
 49
31.75
 74
     0
 49
-6.349999999999999
 74
     0
 49
6.349999999999999
 74
     0
 49
-6.349999999999999
 74
     0
  0
ENDTAB
  0
TABLE
  2
LAYER
  5
2
330
0
100
AcDbSymbolTable
 70
     4
  0
LAYER
  5
10
330
2
100
AcDbSymbolTableRecord
100
AcDbLayerTableRecord
  2
0
 70
     0
 62
     7
  6
CONTINUOUS
  0
LAYER
  5
124
330
2
100
AcDbSymbolTableRecord
100
AcDbLayerTableRecord
  2
STR
 70
     0
 62
     7
  6
CONTINUOUS
  0
LAYER
  5
125
330
2
100
AcDbSymbolTableRecord
100
AcDbLayerTableRecord
  2
BMK
 70
     0
 62
     1
  6
CENTER
  0
LAYER
  5
126
330
2
100
AcDbSymbolTableRecord
100
AcDbLayerTableRecord
  2
DEFPOINTS
 70
     0
 62
     7
  6
CONTINUOUS
  0
ENDTAB
  0
TABLE
  2
STYLE
  5
3
330
0
100
AcDbSymbolTable
 70
     1
  0
STYLE
  5
11
330
3
100
AcDbSymbolTableRecord
100
AcDbTextStyleTableRecord
  2
STANDARD
 70
     0
 40
0.0
 41
1.0
 50
0.0
 71
     0
 42
2.5
  3
txt.shx
  4
bigfont.shx
  0
ENDTAB
  0
TABLE
  2
VIEW
  5
6
330
0
100
AcDbSymbolTable
 70
     0
  0
ENDTAB
  0
TABLE
  2
UCS
  5
7
330
0
100
AcDbSymbolTable
 70
     0
  0
ENDTAB
  0
TABLE
  2
APPID
  5
9
330
0
100
AcDbSymbolTable
 70
     1
  0
APPID
  5
12
330
9
100
AcDbSymbolTableRecord
100
AcDbRegAppTableRecord
  2
ACAD
 70
     0
  0
ENDTAB
  0
TABLE
  2
DIMSTYLE
  5
A
330
0
100
AcDbSymbolTable
 70
     1
  0
DIMSTYLE
105
127
330
A
100
AcDbSymbolTableRecord
100
AcDbDimStyleTableRecord
  2
ISO-25-BRGK
 70
     0
  3

  4

  5
OPEN30
  6

  7

 40
1.0
 41
50.0
 42
0.625
 43
3.75
 44
1.25
 45
0.0
 46
0.0
 47
0.0
 48
0.0
140
60.0
141
2.5
142
0.0
143
0.03937007874016
144
1.0
145
0.0
146
1.0
147
30.0
 71
     0
 72
     0
 73
     0
 74
     0
 75
     0
 76
     0
 77
     1
 78
     8
170
     0
171
     3
172
     1
173
     0
174
     0
175
     0
176
     0
177
     0
178
     0
270
     2
271
     2
272
     2
273
     2
274
     3
340
11
275
     0
280
     0
281
     0
282
     0
283
     0
284
     8
285
     0
286
     0
287
     2
288
     0
  0
ENDTAB
  0
TABLE
  2
BLOCK_RECORD
  5
1
330
0
100
AcDbSymbolTable
 70
    16
  0
BLOCK_RECORD
  5
1F
102
{ACAD_XDICTIONARY
360
924
102
}
330
1
100
AcDbSymbolTableRecord
100
AcDbBlockTableRecord
  2
*MODEL_SPACE
  0
BLOCK_RECORD
  5
90B
102
{ACAD_XDICTIONARY
360
926
102
}
330
1
100
AcDbSymbolTableRecord
100
AcDbBlockTableRecord
  2
*PAPER_SPACE
  0
BLOCK_RECORD
  5
9F
330
1
100
AcDbSymbolTableRecord
100
AcDbBlockTableRecord
  2
_OPEN30
  0
BLOCK_RECORD
  5
ED
330
1
100
AcDbSymbolTableRecord
100
AcDbBlockTableRecord
  2
_NONE
  0
BLOCK_RECORD
  5
35A
330
1
100
AcDbSymbolTableRecord
100
AcDbBlockTableRecord
  2
*D2
  0
BLOCK_RECORD
  5
558
330
1
100
AcDbSymbolTableRecord
100
AcDbBlockTableRecord
  2
*D3
  0
BLOCK_RECORD
  5
570
330
1
100
AcDbSymbolTableRecord
100
AcDbBlockTableRecord
  2
*D4
  0
BLOCK_RECORD
  5
586
330
1
100
AcDbSymbolTableRecord
100
AcDbBlockTableRecord
  2
*D5
  0
BLOCK_RECORD
  5
59E
330
1
100
AcDbSymbolTableRecord
100
AcDbBlockTableRecord
  2
*D6
  0
BLOCK_RECORD
  5
5EA
330
1
100
AcDbSymbolTableRecord
100
AcDbBlockTableRecord
  2
*D7
  0
BLOCK_RECORD
  5
674
330
1
100
AcDbSymbolTableRecord
100
AcDbBlockTableRecord
  2
*D8
  0
BLOCK_RECORD
  5
68C
330
1
100
AcDbSymbolTableRecord
100
AcDbBlockTableRecord
  2
*D9
  0
BLOCK_RECORD
  5
6A4
330
1
100
AcDbSymbolTableRecord
100
AcDbBlockTableRecord
  2
*D10
  0
BLOCK_RECORD
  5
6DF
330
1
100
AcDbSymbolTableRecord
100
AcDbBlockTableRecord
  2
*D11
  0
BLOCK_RECORD
  5
6F7
330
1
100
AcDbSymbolTableRecord
100
AcDbBlockTableRecord
  2
*D12
  0
BLOCK_RECORD
  5
70F
330
1
100
AcDbSymbolTableRecord
100
AcDbBlockTableRecord
  2
*D13
  0
BLOCK_RECORD
  5
85A
330
1
100
AcDbSymbolTableRecord
100
AcDbBlockTableRecord
  2
*D14
  0
BLOCK_RECORD
  5
872
330
1
100
AcDbSymbolTableRecord
100
AcDbBlockTableRecord
  2
*D15
  0
ENDTAB
  0
ENDSEC
  0
SECTION
  2
BLOCKS
  0
BLOCK
  5
20
330
1F
100
AcDbEntity
  8
0
100
AcDbBlockBegin
  2
*MODEL_SPACE
 70
     0
 10
0.0
 20
0.0
 30
0.0
  3
*MODEL_SPACE
  1

  0
ENDBLK
  5
21
330
1F
100
AcDbEntity
  8
0
100
AcDbBlockEnd
  0
BLOCK
  5
90D
330
90B
100
AcDbEntity
 67
     1
  8
0
100
AcDbBlockBegin
  2
*PAPER_SPACE
 70
     0
 10
0.0
 20
0.0
 30
0.0
  3
*PAPER_SPACE
  1

  0
ENDBLK
  5
90E
330
90B
100
AcDbEntity
 67
     1
  8
0
100
AcDbBlockEnd
  0
BLOCK
  5
A0
330
9F
100
AcDbEntity
  8
0
100
AcDbBlockBegin
  2
_OPEN30
 70
     0
 10
0.0
 20
0.0
 30
0.0
  3
_OPEN30
  1

  0
LINE
  5
A1
330
9F
100
AcDbEntity
  8
0
  6
BYBLOCK
 62
     0
100
AcDbLine
 10
-1.0
 20
0.26794919
 30
0.0
 11
0.0
 21
0.0
 31
0.0
  0
LINE
  5
A2
330
9F
100
AcDbEntity
  8
0
  6
BYBLOCK
 62
     0
100
AcDbLine
 10
0.0
 20
0.0
 30
0.0
 11
-1.0
 21
-0.26794919
 31
0.0
  0
LINE
  5
A3
330
9F
100
AcDbEntity
  8
0
  6
BYBLOCK
 62
     0
100
AcDbLine
 10
0.0
 20
0.0
 30
0.0
 11
-1.0
 21
0.0
 31
0.0
  0
ENDBLK
  5
A4
330
9F
100
AcDbEntity
  8
0
100
AcDbBlockEnd
  0
BLOCK
  5
EE
330
ED
100
AcDbEntity
  8
0
100
AcDbBlockBegin
  2
_NONE
 70
     0
 10
0.0
 20
0.0
 30
0.0
  3
_NONE
  1

  0
ENDBLK
  5
EF
330
ED
100
AcDbEntity
  8
0
100
AcDbBlockEnd
  0
BLOCK
  5
364
330
35A
100
AcDbEntity
  8
0
100
AcDbBlockBegin
  2
*D2
 70
     1
 10
0.0
 20
0.0
 30
0.0
  3
*D2
  1

  0
LINE
  5
6D5
330
35A
100
AcDbEntity
  8
STR
 62
     0
100
AcDbLine
 10
958.9288672725585
 20
1721.382749330132
 30
0.0
 11
958.3038672725585
 21
1721.382749330132
 31
0.0
  0
LINE
  5
6D6
330
35A
100
AcDbEntity
  8
STR
 62
     0
100
AcDbLine
 10
958.9288672725583
 20
1221.382749330131
 30
0.0
 11
958.3038672725583
 21
1221.382749330131
 31
0.0
  0
LINE
  5
6D7
330
35A
100
AcDbEntity
  8
STR
 62
     0
100
AcDbLine
 10
959.5538672725584
 20
1671.382749330132
 30
0.0
 11
959.5538672725583
 21
1271.382749330131
 31
0.0
  0
INSERT
  5
6D8
330
35A
100
AcDbEntity
  8
STR
 62
     0
100
AcDbBlockReference
  2
_OPEN30
 10
959.5538672725584
 20
1721.382749330132
 30
0.0
 41
50.0
 42
50.0
 43
50.0
 50
90.0
  0
INSERT
  5
6D9
330
35A
100
AcDbEntity
  8
STR
 62
     0
100
AcDbBlockReference
  2
_OPEN30
 10
959.5538672725583
 20
1221.382749330131
 30
0.0
 41
50.0
 42
50.0
 43
50.0
 50
270.0
  0
MTEXT
  5
6DA
330
35A
100
AcDbEntity
  8
STR
 62
     0
100
AcDbMText
 10
899.5538672725583
 20
1471.382749330132
 30
0.0
 40
60.0
 41
0.0
 71
     5
 72
     1
  1
　
 11
0.0000000000000001
 21
1.0
 31
0.0
1001
ACAD
1000
MTEXTBEGIN
1070
    73
1070
     1
1070
    44
1040
1.0
1070
    74
1070
     0
1000
MTEXTEND
  0
POINT
  5
6DB
330
35A
100
AcDbEntity
  8
DEFPOINTS
 62
     0
100
AcDbPoint
 10
959.5538672725586
 20
1721.382749330132
 30
0.0
  0
POINT
  5
6DC
330
35A
100
AcDbEntity
  8
DEFPOINTS
 62
     0
100
AcDbPoint
 10
959.5538672725583
 20
1221.382749330131
 30
0.0
  0
POINT
  5
6DD
330
35A
100
AcDbEntity
  8
DEFPOINTS
 62
     0
100
AcDbPoint
 10
959.5538672725583
 20
1221.382749330131
 30
0.0
  0
ENDBLK
  5
365
330
35A
100
AcDbEntity
  8
0
100
AcDbBlockEnd
  0
BLOCK
  5
562
330
558
100
AcDbEntity
  8
0
100
AcDbBlockBegin
  2
*D3
 70
     1
 10
0.0
 20
0.0
 30
0.0
  3
*D3
  1

  0
LINE
  5
847
330
558
100
AcDbEntity
  8
STR
 62
     0
100
AcDbLine
 10
2168.30683121825
 20
2071.382749330131
 30
0.0
 11
2986.110304513619
 21
2071.382749330131
 31
0.0
  0
LINE
  5
848
330
558
100
AcDbEntity
  8
STR
 62
     0
100
AcDbLine
 10
2416.306831218248
 20
866.3827493301313
 30
0.0
 11
2986.110304513619
 21
866.3827493301313
 31
0.0
  0
LINE
  5
849
330
558
100
AcDbEntity
  8
STR
 62
     0
100
AcDbLine
 10
2984.860304513619
 20
2021.382749330131
 30
0.0
 11
2984.860304513619
 21
916.3827493301313
 31
0.0
  0
INSERT
  5
84A
330
558
100
AcDbEntity
  8
STR
 62
     0
100
AcDbBlockReference
  2
_OPEN30
 10
2984.860304513619
 20
2071.382749330131
 30
0.0
 41
50.0
 42
50.0
 43
50.0
 50
90.0
  0
INSERT
  5
84B
330
558
100
AcDbEntity
  8
STR
 62
     0
100
AcDbBlockReference
  2
_OPEN30
 10
2984.860304513619
 20
866.3827493301313
 30
0.0
 41
50.0
 42
50.0
 43
50.0
 50
270.0
  0
MTEXT
  5
84C
330
558
100
AcDbEntity
  8
STR
 62
     0
100
AcDbMText
 10
2924.860304513618
 20
1468.882749330131
 30
0.0
 40
60.0
 41
0.0
 71
     5
 72
     1
  1
1205
 11
0.0000000000000001
 21
1.0
 31
0.0
1001
ACAD
1000
MTEXTBEGIN
1070
    73
1070
     1
1070
    44
1040
1.0
1070
    74
1070
     0
1000
MTEXTEND
  0
POINT
  5
84D
330
558
100
AcDbEntity
  8
DEFPOINTS
 62
     0
100
AcDbPoint
 10
2167.68183121825
 20
2071.382749330131
 30
0.0
  0
POINT
  5
84E
330
558
100
AcDbEntity
  8
DEFPOINTS
 62
     0
100
AcDbPoint
 10
2415.681831218249
 20
866.3827493301313
 30
0.0
  0
POINT
  5
84F
330
558
100
AcDbEntity
  8
DEFPOINTS
 62
     0
100
AcDbPoint
 10
2984.860304513619
 20
866.3827493301313
 30
0.0
  0
ENDBLK
  5
563
330
558
100
AcDbEntity
  8
0
100
AcDbBlockEnd
  0
BLOCK
  5
57A
330
570
100
AcDbEntity
  8
0
100
AcDbBlockBegin
  2
*D4
 70
     1
 10
0.0
 20
0.0
 30
0.0
  3
*D4
  1

  0
LINE
  5
892
330
570
100
AcDbEntity
  8
STR
 62
     0
100
AcDbLine
 10
2641.904155551721
 20
866.3827493301313
 30
0.0
 11
2827.911679102993
 21
866.3827493301313
 31
0.0
  0
LINE
  5
893
330
570
100
AcDbEntity
  8
STR
 62
     0
100
AcDbLine
 10
2641.904155551721
 20
1471.382749330131
 30
0.0
 11
2827.911679102994
 21
1471.382749330131
 31
0.0
  0
LINE
  5
894
330
570
100
AcDbEntity
  8
STR
 62
     0
100
AcDbLine
 10
2826.661679102993
 20
916.3827493301313
 30
0.0
 11
2826.661679102993
 21
1421.382749330131
 31
0.0
  0
INSERT
  5
895
330
570
100
AcDbEntity
  8
STR
 62
     0
100
AcDbBlockReference
  2
_OPEN30
 10
2826.661679102993
 20
866.3827493301313
 30
0.0
 41
50.0
 42
50.0
 43
50.0
 50
270.0
  0
INSERT
  5
896
330
570
100
AcDbEntity
  8
STR
 62
     0
100
AcDbBlockReference
  2
_OPEN30
 10
2826.661679102993
 20
1471.382749330131
 30
0.0
 41
50.0
 42
50.0
 43
50.0
 50
90.0
  0
MTEXT
  5
897
330
570
100
AcDbEntity
  8
STR
 62
     0
100
AcDbMText
 10
2766.661679102993
 20
1168.882749330131
 30
0.0
 40
60.0
 41
0.0
 71
     5
 72
     1
  1
605
 11
0.0000000000000001
 21
1.0
 31
0.0
1001
ACAD
1000
MTEXTBEGIN
1070
    73
1070
     1
1070
    44
1040
1.0
1070
    74
1070
     0
1000
MTEXTEND
  0
POINT
  5
898
330
570
100
AcDbEntity
  8
DEFPOINTS
 62
     0
100
AcDbPoint
 10
2641.279155551721
 20
866.3827493301313
 30
0.0
  0
POINT
  5
899
330
570
100
AcDbEntity
  8
DEFPOINTS
 62
     0
100
AcDbPoint
 10
2641.279155551721
 20
1471.382749330131
 30
0.0
  0
POINT
  5
89A
330
570
100
AcDbEntity
  8
DEFPOINTS
 62
     0
100
AcDbPoint
 10
2826.661679102993
 20
1471.382749330131
 30
0.0
  0
ENDBLK
  5
57B
330
570
100
AcDbEntity
  8
0
100
AcDbBlockEnd
  0
BLOCK
  5
590
330
586
100
AcDbEntity
  8
0
100
AcDbBlockBegin
  2
*D5
 70
     1
 10
0.0
 20
0.0
 30
0.0
  3
*D5
  1

  0
LINE
  5
818
330
586
100
AcDbEntity
  8
STR
 62
     0
100
AcDbLine
 10
805.681831218248
 20
840.7577493301316
 30
0.0
 11
805.681831218248
 21
464.5002043860077
 31
0.0
  0
LINE
  5
819
330
586
100
AcDbEntity
  8
STR
 62
     0
100
AcDbLine
 10
2522.681831218249
 20
840.7577493301314
 30
0.0
 11
2522.681831218249
 21
464.5002043860077
 31
0.0
  0
LINE
  5
81A
330
586
100
AcDbEntity
  8
STR
 62
     0
100
AcDbLine
 10
855.681831218248
 20
465.7502043860076
 30
0.0
 11
2472.681831218249
 21
465.7502043860076
 31
0.0
  0
INSERT
  5
81B
330
586
100
AcDbEntity
  8
STR
 62
     0
100
AcDbBlockReference
  2
_OPEN30
 10
805.681831218248
 20
465.7502043860076
 30
0.0
 41
50.0
 42
50.0
 43
50.0
 50
180.0
  0
INSERT
  5
81C
330
586
100
AcDbEntity
  8
STR
 62
     0
100
AcDbBlockReference
  2
_OPEN30
 10
2522.681831218249
 20
465.7502043860076
 30
0.0
 41
50.0
 42
50.0
 43
50.0
  0
MTEXT
  5
81D
330
586
100
AcDbEntity
  8
STR
 62
     0
100
AcDbMText
 10
1664.181831218248
 20
525.7502043860077
 30
0.0
 40
60.0
 41
0.0
 71
     5
 72
     1
  1
1717
1001
ACAD
1000
MTEXTBEGIN
1070
    73
1070
     1
1070
    44
1040
1.0
1070
    74
1070
     0
1000
MTEXTEND
  0
POINT
  5
81E
330
586
100
AcDbEntity
  8
DEFPOINTS
 62
     0
100
AcDbPoint
 10
805.681831218248
 20
841.3827493301315
 30
0.0
  0
POINT
  5
81F
330
586
100
AcDbEntity
  8
DEFPOINTS
 62
     0
100
AcDbPoint
 10
2522.681831218249
 20
841.3827493301313
 30
0.0
  0
POINT
  5
820
330
586
100
AcDbEntity
  8
DEFPOINTS
 62
     0
100
AcDbPoint
 10
2522.681831218249
 20
465.7502043860076
 30
0.0
  0
ENDBLK
  5
591
330
586
100
AcDbEntity
  8
0
100
AcDbBlockEnd
  0
BLOCK
  5
5A8
330
59E
100
AcDbEntity
  8
0
100
AcDbBlockBegin
  2
*D6
 70
     1
 10
0.0
 20
0.0
 30
0.0
  3
*D6
  1

  0
LINE
  5
82A
330
59E
100
AcDbEntity
  8
STR
 62
     0
100
AcDbLine
 10
805.681831218248
 20
840.7577493301316
 30
0.0
 11
805.681831218248
 21
638.7135665452006
 31
0.0
  0
LINE
  5
82B
330
59E
100
AcDbEntity
  8
STR
 62
     0
100
AcDbLine
 10
2365.681831218247
 20
840.7577493301314
 30
0.0
 11
2365.681831218247
 21
638.7135665452006
 31
0.0
  0
LINE
  5
82C
330
59E
100
AcDbEntity
  8
STR
 62
     0
100
AcDbLine
 10
855.681831218248
 20
639.9635665452006
 30
0.0
 11
2315.681831218248
 21
639.9635665452006
 31
0.0
  0
INSERT
  5
82D
330
59E
100
AcDbEntity
  8
STR
 62
     0
100
AcDbBlockReference
  2
_OPEN30
 10
805.681831218248
 20
639.9635665452006
 30
0.0
 41
50.0
 42
50.0
 43
50.0
 50
180.0
  0
INSERT
  5
82E
330
59E
100
AcDbEntity
  8
STR
 62
     0
100
AcDbBlockReference
  2
_OPEN30
 10
2365.681831218247
 20
639.9635665452006
 30
0.0
 41
50.0
 42
50.0
 43
50.0
  0
MTEXT
  5
82F
330
59E
100
AcDbEntity
  8
STR
 62
     0
100
AcDbMText
 10
1585.681831218248
 20
699.9635665452005
 30
0.0
 40
60.0
 41
0.0
 71
     5
 72
     1
  1
1560
1001
ACAD
1000
MTEXTBEGIN
1070
    73
1070
     1
1070
    44
1040
1.0
1070
    74
1070
     0
1000
MTEXTEND
  0
POINT
  5
830
330
59E
100
AcDbEntity
  8
DEFPOINTS
 62
     0
100
AcDbPoint
 10
805.681831218248
 20
841.3827493301315
 30
0.0
  0
POINT
  5
831
330
59E
100
AcDbEntity
  8
DEFPOINTS
 62
     0
100
AcDbPoint
 10
2365.681831218247
 20
841.3827493301313
 30
0.0
  0
POINT
  5
832
330
59E
100
AcDbEntity
  8
DEFPOINTS
 62
     0
100
AcDbPoint
 10
2365.681831218247
 20
639.9635665452006
 30
0.0
  0
ENDBLK
  5
5A9
330
59E
100
AcDbEntity
  8
0
100
AcDbBlockEnd
  0
BLOCK
  5
5F9
330
5EA
100
AcDbEntity
  8
0
100
AcDbBlockBegin
  2
*D7
 70
     1
 10
0.0
 20
0.0
 30
0.0
  3
*D7
  1

  0
LINE
  5
B4B
330
5EA
100
AcDbEntity
  8
STR
 62
     0
100
AcDbLine
 10
2365.681831218247
 20
840.7577493301314
 30
0.0
 11
2365.681831218247
 21
638.7135665452006
 31
0.0
  0
LINE
  5
B4C
330
5EA
100
AcDbEntity
  8
STR
 62
     0
100
AcDbLine
 10
2522.681831218249
 20
640.5885665452005
 30
0.0
 11
2522.681831218249
 21
641.2135665452005
 31
0.0
  0
LINE
  5
B4D
330
5EA
100
AcDbEntity
  8
STR
 62
     0
100
AcDbLine
 10
2315.681831218248
 20
639.9635665452006
 30
0.0
 11
2265.681831218248
 21
639.9635665452006
 31
0.0
  0
LINE
  5
B4E
330
5EA
100
AcDbEntity
  8
STR
 62
     0
100
AcDbLine
 10
2572.681831218249
 20
639.9635665452006
 30
0.0
 11
2622.681831218249
 21
639.9635665452006
 31
0.0
  0
MTEXT
  5
B4F
330
5EA
100
AcDbEntity
  8
STR
 62
     0
100
AcDbMText
 10
2444.181831218248
 20
699.9635665452005
 30
0.0
 40
60.0
 41
0.0
 71
     5
 72
     1
  1
157
1001
ACAD
1000
MTEXTBEGIN
1070
    73
1070
     1
1070
    44
1040
1.0
1070
    74
1070
     0
1000
MTEXTEND
  0
LINE
  5
B50
330
5EA
100
AcDbEntity
  8
STR
 62
     0
100
AcDbLine
 10
2365.681831218247
 20
639.9635665452006
 30
0.0
 11
2522.681831218249
 21
639.9635665452006
 31
0.0
  0
INSERT
  5
B51
330
5EA
100
AcDbEntity
  8
STR
 62
     0
100
AcDbBlockReference
  2
_OPEN30
 10
2365.681831218247
 20
639.9635665452006
 30
0.0
 41
50.0
 42
50.0
 43
50.0
  0
INSERT
  5
B52
330
5EA
100
AcDbEntity
  8
STR
 62
     0
100
AcDbBlockReference
  2
_OPEN30
 10
2522.681831218249
 20
639.9635665452006
 30
0.0
 41
50.0
 42
50.0
 43
50.0
 50
180.0
  0
POINT
  5
B53
330
5EA
100
AcDbEntity
  8
DEFPOINTS
 62
     0
100
AcDbPoint
 10
2365.681831218247
 20
841.3827493301313
 30
0.0
  0
POINT
  5
B54
330
5EA
100
AcDbEntity
  8
DEFPOINTS
 62
     0
100
AcDbPoint
 10
2522.681831218249
 20
639.9635665452006
 30
0.0
  0
POINT
  5
B55
330
5EA
100
AcDbEntity
  8
DEFPOINTS
 62
     0
100
AcDbPoint
 10
2522.681831218249
 20
639.9635665452006
 30
0.0
  0
ENDBLK
  5
5FA
330
5EA
100
AcDbEntity
  8
0
100
AcDbBlockEnd
  0
BLOCK
  5
67E
330
674
100
AcDbEntity
  8
0
100
AcDbBlockBegin
  2
*D8
 70
     1
 10
0.0
 20
0.0
 30
0.0
  3
*D8
  1

  0
LINE
  5
749
330
674
100
AcDbEntity
  8
STR
 62
     0
100
AcDbLine
 10
1962.681831218249
 20
2122.340279086249
 30
0.0
 11
1962.681831218249
 21
2280.890563461376
 31
0.0
  0
LINE
  5
74A
330
674
100
AcDbEntity
  8
STR
 62
     0
100
AcDbLine
 10
2522.681831218249
 20
2122.340279086249
 30
0.0
 11
2522.681831218249
 21
2280.890563461376
 31
0.0
  0
LINE
  5
74B
330
674
100
AcDbEntity
  8
STR
 62
     0
100
AcDbLine
 10
2012.681831218249
 20
2279.640563461376
 30
0.0
 11
2472.681831218249
 21
2279.640563461376
 31
0.0
  0
INSERT
  5
74C
330
674
100
AcDbEntity
  8
STR
 62
     0
100
AcDbBlockReference
  2
_OPEN30
 10
1962.681831218249
 20
2279.640563461376
 30
0.0
 41
50.0
 42
50.0
 43
50.0
 50
180.0
  0
INSERT
  5
74D
330
674
100
AcDbEntity
  8
STR
 62
     0
100
AcDbBlockReference
  2
_OPEN30
 10
2522.681831218249
 20
2279.640563461376
 30
0.0
 41
50.0
 42
50.0
 43
50.0
  0
MTEXT
  5
74E
330
674
100
AcDbEntity
  8
STR
 62
     0
100
AcDbMText
 10
2242.681831218249
 20
2339.640563461376
 30
0.0
 40
60.0
 41
0.0
 71
     5
 72
     1
  1
560
1001
ACAD
1000
MTEXTBEGIN
1070
    73
1070
     1
1070
    44
1040
1.0
1070
    74
1070
     0
1000
MTEXTEND
  0
POINT
  5
74F
330
674
100
AcDbEntity
  8
DEFPOINTS
 62
     0
100
AcDbPoint
 10
1962.681831218249
 20
2121.715279086249
 30
0.0
  0
POINT
  5
750
330
674
100
AcDbEntity
  8
DEFPOINTS
 62
     0
100
AcDbPoint
 10
2522.681831218249
 20
2121.715279086249
 30
0.0
  0
POINT
  5
751
330
674
100
AcDbEntity
  8
DEFPOINTS
 62
     0
100
AcDbPoint
 10
2522.681831218249
 20
2279.640563461376
 30
0.0
  0
ENDBLK
  5
67F
330
674
100
AcDbEntity
  8
0
100
AcDbBlockEnd
  0
BLOCK
  5
696
330
68C
100
AcDbEntity
  8
0
100
AcDbBlockBegin
  2
*D9
 70
     1
 10
0.0
 20
0.0
 30
0.0
  3
*D9
  1

  0
LINE
  5
7E9
330
68C
100
AcDbEntity
  8
STR
 62
     0
100
AcDbLine
 10
780.0568312182481
 20
866.3827493301335
 30
0.0
 11
716.1380384043732
 21
866.3827493301337
 31
0.0
  0
LINE
  5
7EA
330
68C
100
AcDbEntity
  8
STR
 62
     0
100
AcDbLine
 10
780.0568312182483
 20
1096.382749330133
 30
0.0
 11
716.1380384043732
 21
1096.382749330133
 31
0.0
  0
LINE
  5
7EB
330
68C
100
AcDbEntity
  8
STR
 62
     0
100
AcDbLine
 10
717.3880384043732
 20
916.3827493301337
 30
0.0
 11
717.3880384043732
 21
1046.382749330133
 31
0.0
  0
INSERT
  5
7EC
330
68C
100
AcDbEntity
  8
STR
 62
     0
100
AcDbBlockReference
  2
_OPEN30
 10
717.3880384043732
 20
866.3827493301337
 30
0.0
 41
50.0
 42
50.0
 43
50.0
 50
270.0
  0
INSERT
  5
7ED
330
68C
100
AcDbEntity
  8
STR
 62
     0
100
AcDbBlockReference
  2
_OPEN30
 10
717.3880384043732
 20
1096.382749330133
 30
0.0
 41
50.0
 42
50.0
 43
50.0
 50
90.0
  0
MTEXT
  5
7EE
330
68C
100
AcDbEntity
  8
STR
 62
     0
100
AcDbMText
 10
657.388038404373
 20
981.3827493301335
 30
0.0
 40
60.0
 41
0.0
 71
     5
 72
     1
  1
230
 11
0.0000000000000001
 21
1.0
 31
0.0
1001
ACAD
1000
MTEXTBEGIN
1070
    73
1070
     1
1070
    44
1040
1.0
1070
    74
1070
     0
1000
MTEXTEND
  0
POINT
  5
7EF
330
68C
100
AcDbEntity
  8
DEFPOINTS
 62
     0
100
AcDbPoint
 10
780.6818312182481
 20
866.3827493301335
 30
0.0
  0
POINT
  5
7F0
330
68C
100
AcDbEntity
  8
DEFPOINTS
 62
     0
100
AcDbPoint
 10
780.6818312182484
 20
1096.382749330133
 30
0.0
  0
POINT
  5
7F1
330
68C
100
AcDbEntity
  8
DEFPOINTS
 62
     0
100
AcDbPoint
 10
717.3880384043732
 20
1096.382749330133
 30
0.0
  0
ENDBLK
  5
697
330
68C
100
AcDbEntity
  8
0
100
AcDbBlockEnd
  0
BLOCK
  5
6B0
330
6A4
100
AcDbEntity
  8
0
100
AcDbBlockBegin
  2
*D10
 70
     1
 10
0.0
 20
0.0
 30
0.0
  3
*D10
  1

  0
LINE
  5
B56
330
6A4
100
AcDbEntity
  8
STR
 62
     0
100
AcDbLine
 10
780.0568312182483
 20
1096.382749330133
 30
0.0
 11
716.1380384043732
 21
1096.382749330133
 31
0.0
  0
LINE
  5
B57
330
6A4
100
AcDbEntity
  8
STR
 62
     0
100
AcDbLine
 10
780.0568312182483
 20
1121.382749330132
 30
0.0
 11
716.1380384043732
 21
1121.382749330132
 31
0.0
  0
LINE
  5
B58
330
6A4
100
AcDbEntity
  8
STR
 62
     0
100
AcDbLine
 10
717.3880384043732
 20
1046.382749330133
 30
0.0
 11
717.3880384043732
 21
996.3827493301334
 31
0.0
  0
LINE
  5
B59
330
6A4
100
AcDbEntity
  8
STR
 62
     0
100
AcDbLine
 10
717.3880384043732
 20
1171.382749330132
 30
0.0
 11
717.3880384043732
 21
1221.382749330132
 31
0.0
  0
MTEXT
  5
B5A
330
6A4
100
AcDbEntity
  8
STR
 62
     0
100
AcDbMText
 10
657.3880384043732
 20
1146.820372800891
 30
0.0
 40
60.0
 41
0.0
 71
     5
 72
     1
  1
25
 11
0.0000000000000001
 21
1.0
 31
0.0
1001
ACAD
1000
MTEXTBEGIN
1070
    73
1070
     1
1070
    44
1040
1.0
1070
    74
1070
     0
1000
MTEXTEND
  0
LINE
  5
B5B
330
6A4
100
AcDbEntity
  8
STR
 62
     0
100
AcDbLine
 10
717.3880384043732
 20
1096.382749330133
 30
0.0
 11
717.3880384043732
 21
1121.382749330132
 31
0.0
  0
INSERT
  5
B5C
330
6A4
100
AcDbEntity
  8
STR
 62
     0
100
AcDbBlockReference
  2
_OPEN30
 10
717.3880384043732
 20
1096.382749330133
 30
0.0
 41
50.0
 42
50.0
 43
50.0
 50
90.0
  0
INSERT
  5
B5D
330
6A4
100
AcDbEntity
  8
STR
 62
     0
100
AcDbBlockReference
  2
_OPEN30
 10
717.3880384043732
 20
1121.382749330132
 30
0.0
 41
50.0
 42
50.0
 43
50.0
 50
270.0
  0
POINT
  5
B5E
330
6A4
100
AcDbEntity
  8
DEFPOINTS
 62
     0
100
AcDbPoint
 10
780.6818312182484
 20
1096.382749330133
 30
0.0
  0
POINT
  5
B5F
330
6A4
100
AcDbEntity
  8
DEFPOINTS
 62
     0
100
AcDbPoint
 10
780.6818312182484
 20
1121.382749330132
 30
0.0
  0
POINT
  5
B60
330
6A4
100
AcDbEntity
  8
DEFPOINTS
 62
     0
100
AcDbPoint
 10
717.3880384043732
 20
1121.382749330132
 30
0.0
  0
ENDBLK
  5
6B1
330
6A4
100
AcDbEntity
  8
0
100
AcDbBlockEnd
  0
BLOCK
  5
6E9
330
6DF
100
AcDbEntity
  8
0
100
AcDbBlockBegin
  2
*D11
 70
     1
 10
0.0
 20
0.0
 30
0.0
  3
*D11
  1

  0
LINE
  5
793
330
6DF
100
AcDbEntity
  8
STR
 62
     0
100
AcDbLine
 10
3374.981387665227
 20
719.1996157890389
 30
0.0
 11
3374.981387665227
 21
571.7314864253821
 31
0.0
  0
LINE
  5
794
330
6DF
100
AcDbEntity
  8
STR
 62
     0
100
AcDbLine
 10
4034.981387665226
 20
719.1996157890389
 30
0.0
 11
4034.981387665226
 21
571.7314864253821
 31
0.0
  0
LINE
  5
795
330
6DF
100
AcDbEntity
  8
STR
 62
     0
100
AcDbLine
 10
3424.981387665226
 20
572.9814864253821
 30
0.0
 11
3984.981387665226
 21
572.9814864253821
 31
0.0
  0
INSERT
  5
796
330
6DF
100
AcDbEntity
  8
STR
 62
     0
100
AcDbBlockReference
  2
_OPEN30
 10
3374.981387665227
 20
572.9814864253821
 30
0.0
 41
50.0
 42
50.0
 43
50.0
 50
180.0
  0
INSERT
  5
797
330
6DF
100
AcDbEntity
  8
STR
 62
     0
100
AcDbBlockReference
  2
_OPEN30
 10
4034.981387665226
 20
572.9814864253821
 30
0.0
 41
50.0
 42
50.0
 43
50.0
  0
MTEXT
  5
798
330
6DF
100
AcDbEntity
  8
STR
 62
     0
100
AcDbMText
 10
3704.981387665226
 20
632.9814864253822
 30
0.0
 40
60.0
 41
0.0
 71
     5
 72
     1
  1
660
1001
ACAD
1000
MTEXTBEGIN
1070
    73
1070
     1
1070
    44
1040
1.0
1070
    74
1070
     0
1000
MTEXTEND
  0
POINT
  5
799
330
6DF
100
AcDbEntity
  8
DEFPOINTS
 62
     0
100
AcDbPoint
 10
3374.981387665227
 20
719.8246157890389
 30
0.0
  0
POINT
  5
79A
330
6DF
100
AcDbEntity
  8
DEFPOINTS
 62
     0
100
AcDbPoint
 10
4034.981387665226
 20
719.8246157890389
 30
0.0
  0
POINT
  5
79B
330
6DF
100
AcDbEntity
  8
DEFPOINTS
 62
     0
100
AcDbPoint
 10
4034.981387665226
 20
572.9814864253821
 30
0.0
  0
ENDBLK
  5
6EA
330
6DF
100
AcDbEntity
  8
0
100
AcDbBlockEnd
  0
BLOCK
  5
701
330
6F7
100
AcDbEntity
  8
0
100
AcDbBlockBegin
  2
*D12
 70
     1
 10
0.0
 20
0.0
 30
0.0
  3
*D12
  1

  0
LINE
  5
777
330
6F7
100
AcDbEntity
  8
STR
 62
     0
100
AcDbLine
 10
3404.981387665226
 20
2122.340279086249
 30
0.0
 11
3404.981387665226
 21
2280.890563461376
 31
0.0
  0
LINE
  5
778
330
6F7
100
AcDbEntity
  8
STR
 62
     0
100
AcDbLine
 10
4004.981387665227
 20
2122.340279086249
 30
0.0
 11
4004.981387665227
 21
2280.890563461376
 31
0.0
  0
LINE
  5
779
330
6F7
100
AcDbEntity
  8
STR
 62
     0
100
AcDbLine
 10
3454.981387665226
 20
2279.640563461376
 30
0.0
 11
3954.981387665227
 21
2279.640563461376
 31
0.0
  0
INSERT
  5
77A
330
6F7
100
AcDbEntity
  8
STR
 62
     0
100
AcDbBlockReference
  2
_OPEN30
 10
3404.981387665226
 20
2279.640563461376
 30
0.0
 41
50.0
 42
50.0
 43
50.0
 50
180.0
  0
INSERT
  5
77B
330
6F7
100
AcDbEntity
  8
STR
 62
     0
100
AcDbBlockReference
  2
_OPEN30
 10
4004.981387665227
 20
2279.640563461376
 30
0.0
 41
50.0
 42
50.0
 43
50.0
  0
MTEXT
  5
77C
330
6F7
100
AcDbEntity
  8
STR
 62
     0
100
AcDbMText
 10
3704.981387665227
 20
2339.640563461376
 30
0.0
 40
60.0
 41
0.0
 71
     5
 72
     1
  1
600
1001
ACAD
1000
MTEXTBEGIN
1070
    73
1070
     1
1070
    44
1040
1.0
1070
    74
1070
     0
1000
MTEXTEND
  0
POINT
  5
77D
330
6F7
100
AcDbEntity
  8
DEFPOINTS
 62
     0
100
AcDbPoint
 10
3404.981387665226
 20
2121.715279086249
 30
0.0
  0
POINT
  5
77E
330
6F7
100
AcDbEntity
  8
DEFPOINTS
 62
     0
100
AcDbPoint
 10
4004.981387665227
 20
2121.715279086249
 30
0.0
  0
POINT
  5
77F
330
6F7
100
AcDbEntity
  8
DEFPOINTS
 62
     0
100
AcDbPoint
 10
4004.981387665227
 20
2279.640563461376
 30
0.0
  0
ENDBLK
  5
702
330
6F7
100
AcDbEntity
  8
0
100
AcDbBlockEnd
  0
BLOCK
  5
71B
330
70F
100
AcDbEntity
  8
0
100
AcDbBlockBegin
  2
*D13
 70
     1
 10
0.0
 20
0.0
 30
0.0
  3
*D13
  1

  0
LINE
  5
72A
330
70F
100
AcDbEntity
  8
STR
 62
     0
100
AcDbLine
 10
4029.981387665226
 20
1402.007749330131
 30
0.0
 11
4029.981387665226
 21
1397.232333774187
 31
0.0
  0
LINE
  5
72B
330
70F
100
AcDbEntity
  8
STR
 62
     0
100
AcDbLine
 10
4179.981387665225
 20
1399.107333774187
 30
0.0
 11
4179.981387665225
 21
1399.732333774187
 31
0.0
  0
LINE
  5
72C
330
70F
100
AcDbEntity
  8
STR
 62
     0
100
AcDbLine
 10
3979.981387665226
 20
1398.482333774187
 30
0.0
 11
3929.981387665225
 21
1398.482333774187
 31
0.0
  0
LINE
  5
72D
330
70F
100
AcDbEntity
  8
STR
 62
     0
100
AcDbLine
 10
4229.981387665225
 20
1398.482333774187
 30
0.0
 11
4469.981387665226
 21
1398.482333774187
 31
0.0
  0
LINE
  5
72E
330
70F
100
AcDbEntity
  8
STR
 62
     0
100
AcDbLine
 10
4029.981387665226
 20
1398.482333774187
 30
0.0
 11
4179.981387665225
 21
1398.482333774187
 31
0.0
  0
INSERT
  5
72F
330
70F
100
AcDbEntity
  8
STR
 62
     0
100
AcDbBlockReference
  2
_OPEN30
 10
4029.981387665226
 20
1398.482333774187
 30
0.0
 41
50.0
 42
50.0
 43
50.0
  0
INSERT
  5
730
330
70F
100
AcDbEntity
  8
STR
 62
     0
100
AcDbBlockReference
  2
_OPEN30
 10
4179.981387665225
 20
1398.482333774187
 30
0.0
 41
50.0
 42
50.0
 43
50.0
 50
180.0
  0
MTEXT
  5
731
330
70F
100
AcDbEntity
  8
STR
 62
     0
100
AcDbMText
 10
4374.981387665226
 20
1458.482333774187
 30
0.0
 40
60.0
 41
0.0
 71
     5
 72
     1
  1
150
1001
ACAD
1000
MTEXTBEGIN
1070
    73
1070
     1
1070
    44
1040
1.0
1070
    74
1070
     0
1000
MTEXTEND
  0
POINT
  5
732
330
70F
100
AcDbEntity
  8
DEFPOINTS
 62
     0
100
AcDbPoint
 10
4029.981387665226
 20
1402.632749330131
 30
0.0
  0
POINT
  5
733
330
70F
100
AcDbEntity
  8
DEFPOINTS
 62
     0
100
AcDbPoint
 10
4179.981387665225
 20
1398.482333774187
 30
0.0
  0
POINT
  5
734
330
70F
100
AcDbEntity
  8
DEFPOINTS
 62
     0
100
AcDbPoint
 10
4179.981387665225
 20
1398.482333774187
 30
0.0
  0
ENDBLK
  5
71C
330
70F
100
AcDbEntity
  8
0
100
AcDbBlockEnd
  0
BLOCK
  5
864
330
85A
100
AcDbEntity
  8
0
100
AcDbBlockBegin
  2
*D14
 70
     1
 10
0.0
 20
0.0
 30
0.0
  3
*D14
  1

  0
LINE
  5
8DB
330
85A
100
AcDbEntity
  8
STR
 62
     0
100
AcDbLine
 10
2416.931831218248
 20
866.3827493301313
 30
0.0
 11
2671.169232216929
 21
866.3827493301313
 31
0.0
  0
LINE
  5
8DC
330
85A
100
AcDbEntity
  8
STR
 62
     0
100
AcDbLine
 10
2416.931831218248
 20
1121.382749330132
 30
0.0
 11
2671.169232216929
 21
1121.382749330132
 31
0.0
  0
LINE
  5
8DD
330
85A
100
AcDbEntity
  8
STR
 62
     0
100
AcDbLine
 10
2669.919232216928
 20
916.3827493301313
 30
0.0
 11
2669.919232216929
 21
1071.382749330132
 31
0.0
  0
INSERT
  5
8DE
330
85A
100
AcDbEntity
  8
STR
 62
     0
100
AcDbBlockReference
  2
_OPEN30
 10
2669.919232216928
 20
866.3827493301313
 30
0.0
 41
50.0
 42
50.0
 43
50.0
 50
270.0
  0
INSERT
  5
8DF
330
85A
100
AcDbEntity
  8
STR
 62
     0
100
AcDbBlockReference
  2
_OPEN30
 10
2669.919232216929
 20
1121.382749330132
 30
0.0
 41
50.0
 42
50.0
 43
50.0
 50
90.0
  0
MTEXT
  5
8E0
330
85A
100
AcDbEntity
  8
STR
 62
     0
100
AcDbMText
 10
2609.919232216928
 20
993.8827493301323
 30
0.0
 40
60.0
 41
0.0
 71
     5
 72
     1
  1
255
 11
0.0000000000000001
 21
1.0
 31
0.0
1001
ACAD
1000
MTEXTBEGIN
1070
    73
1070
     1
1070
    44
1040
1.0
1070
    74
1070
     0
1000
MTEXTEND
  0
POINT
  5
8E1
330
85A
100
AcDbEntity
  8
DEFPOINTS
 62
     0
100
AcDbPoint
 10
2416.306831218248
 20
866.3827493301313
 30
0.0
  0
POINT
  5
8E2
330
85A
100
AcDbEntity
  8
DEFPOINTS
 62
     0
100
AcDbPoint
 10
2416.306831218248
 20
1121.382749330132
 30
0.0
  0
POINT
  5
8E3
330
85A
100
AcDbEntity
  8
DEFPOINTS
 62
     0
100
AcDbPoint
 10
2669.919232216929
 20
1121.382749330132
 30
0.0
  0
ENDBLK
  5
865
330
85A
100
AcDbEntity
  8
0
100
AcDbBlockEnd
  0
BLOCK
  5
87C
330
872
100
AcDbEntity
  8
0
100
AcDbBlockBegin
  2
*D15
 70
     1
 10
0.0
 20
0.0
 30
0.0
  3
*D15
  1

  0
LINE
  5
B61
330
872
100
AcDbEntity
  8
STR
 62
     0
100
AcDbLine
 10
2416.931831218248
 20
1121.382749330132
 30
0.0
 11
2671.169232216929
 21
1121.382749330132
 31
0.0
  0
LINE
  5
B62
330
872
100
AcDbEntity
  8
STR
 62
     0
100
AcDbLine
 10
2642.529155551721
 20
1471.382749330131
 30
0.0
 11
2671.169232216929
 21
1471.382749330131
 31
0.0
  0
LINE
  5
B63
330
872
100
AcDbEntity
  8
STR
 62
     0
100
AcDbLine
 10
2669.919232216929
 20
1171.382749330132
 30
0.0
 11
2669.919232216929
 21
1421.382749330131
 31
0.0
  0
INSERT
  5
B64
330
872
100
AcDbEntity
  8
STR
 62
     0
100
AcDbBlockReference
  2
_OPEN30
 10
2669.919232216929
 20
1121.382749330132
 30
0.0
 41
50.0
 42
50.0
 43
50.0
 50
270.0
  0
INSERT
  5
B65
330
872
100
AcDbEntity
  8
STR
 62
     0
100
AcDbBlockReference
  2
_OPEN30
 10
2669.919232216929
 20
1471.382749330131
 30
0.0
 41
50.0
 42
50.0
 43
50.0
 50
90.0
  0
MTEXT
  5
B66
330
872
100
AcDbEntity
  8
STR
 62
     0
100
AcDbMText
 10
2609.919232216928
 20
1296.382749330132
 30
0.0
 40
60.0
 41
0.0
 71
     5
 72
     1
  1
350
 11
0.0000000000000001
 21
1.0
 31
0.0
1001
ACAD
1000
MTEXTBEGIN
1070
    73
1070
     1
1070
    44
1040
1.0
1070
    74
1070
     0
1000
MTEXTEND
  0
POINT
  5
B67
330
872
100
AcDbEntity
  8
DEFPOINTS
 62
     0
100
AcDbPoint
 10
2416.306831218248
 20
1121.382749330132
 30
0.0
  0
POINT
  5
B68
330
872
100
AcDbEntity
  8
DEFPOINTS
 62
     0
100
AcDbPoint
 10
2641.904155551721
 20
1471.382749330131
 30
0.0
  0
POINT
  5
B69
330
872
100
AcDbEntity
  8
DEFPOINTS
 62
     0
100
AcDbPoint
 10
2669.919232216929
 20
1471.382749330131
 30
0.0
  0
ENDBLK
  5
87D
330
872
100
AcDbEntity
  8
0
100
AcDbBlockEnd
  0
ENDSEC
  0
SECTION
  2
ENTITIES
  0
LINE
  5
224
330
1F
100
AcDbEntity
  8
STR
100
AcDbLine
 10
818.2570722062862
 20
1966.115977331562
 30
0.0
 11
1598.64171533437
 21
1966.115977331562
 31
0.0
1001
ACAD
1000
DSTYLE
1002
{
1070
     5
1000
NONE
1070
    77
1070
     0
1070
   147
1040
0.625
1002
}
  0
LINE
  5
225
330
1F
100
AcDbEntity
  8
STR
100
AcDbLine
 10
959.5538672725584
 20
1721.382749330132
 30
0.0
 11
818.2570722062862
 21
1966.115977331562
 31
0.0
1001
ACAD
1000
DSTYLE
1002
{
1070
     5
1000
NONE
1070
    77
1070
     0
1070
   147
1040
0.625
1002
}
  0
LINE
  5
230
330
1F
100
AcDbEntity
  8
STR
100
AcDbLine
 10
1747.681831218247
 20
1121.382749330131
 30
0.0
 11
2365.681831218249
 21
1121.382749330132
 31
0.0
  0
TEXT
  5
250
330
1F
100
AcDbEntity
  8
STR
100
AcDbText
 10
857.2995060720762
 20
1998.767172174417
 30
0.0
 40
60.0
  1
MAXφ500×800l
100
AcDbText
  0
LINE
  5
252
330
1F
100
AcDbEntity
  8
STR
100
AcDbLine
 10
398.469175394189
 20
1612.566269485316
 30
0.0
 11
389.7670097886761
 21
1732.26330915191
 31
0.0
  0
LINE
  5
253
330
1F
100
AcDbEntity
  8
STR
100
AcDbLine
 10
389.7670097886759
 20
1732.26330915191
 30
0.0
 11
394.7485209515948
 21
1732.699134905894
 31
0.0
  0
LINE
  5
254
330
1F
100
AcDbEntity
  8
STR
100
AcDbLine
 10
398.4691753941892
 20
1612.566269485316
 30
0.0
 11
403.4506865571079
 21
1613.0020952393
 31
0.0
  0
LINE
  5
255
330
1F
100
AcDbEntity
  8
STR
100
AcDbLine
 10
426.0788263721601
 20
1232.799480607227
 30
0.0
 11
417.3766607666473
 21
1352.496520273821
 31
0.0
  0
LINE
  5
256
330
1F
100
AcDbEntity
  8
STR
100
AcDbLine
 10
417.376660766647
 20
1352.496520273821
 30
0.0
 11
422.3581719295659
 21
1352.932346027805
 31
0.0
  0
LINE
  5
257
330
1F
100
AcDbEntity
  8
STR
100
AcDbLine
 10
426.0788263721604
 20
1232.799480607227
 30
0.0
 11
431.060337535079
 21
1233.235306361211
 31
0.0
  0
LINE
  5
258
330
1F
100
AcDbEntity
  8
STR
100
AcDbLine
 10
412.1444975982247
 20
1424.464174154833
 30
0.0
 11
417.1260087611433
 21
1424.899999908816
 31
0.0
  0
LINE
  5
259
330
1F
100
AcDbEntity
  8
STR
100
AcDbLine
 10
403.4423319927113
 20
1544.161213821427
 30
0.0
 11
408.4238431556302
 21
1544.59703957541
 31
0.0
  0
LINE
  5
25A
330
1F
100
AcDbEntity
  8
STR
100
AcDbLine
 10
412.1444975982244
 20
1424.464174154833
 30
0.0
 11
403.4423319927116
 21
1544.161213821427
 31
0.0
  0
LINE
  5
25F
330
1F
100
AcDbEntity
  8
STR
100
AcDbLine
 10
535.0682501708576
 20
1221.382749330131
 30
0.0
 11
1947.681831218248
 21
1221.382749330131
 31
0.0
  0
LINE
  5
260
330
1F
100
AcDbEntity
  8
STR
100
AcDbLine
 10
535.0682501708579
 20
1721.382749330132
 30
0.0
 11
1947.681831218249
 21
1721.382749330131
 31
0.0
  0
LINE
  5
26C
330
1F
100
AcDbEntity
  8
STR
100
AcDbLine
 10
3932.246360746264
 20
891.3827493301317
 30
0.0
 11
3932.246360746265
 21
1071.382749330131
 31
0.0
  0
LINE
  5
26E
330
1F
100
AcDbEntity
  8
STR
100
AcDbLine
 10
3957.246360746264
 20
891.3827493301317
 30
0.0
 11
3957.246360746264
 21
1071.382749330131
 31
0.0
  0
LINE
  5
278
330
1F
100
AcDbEntity
  8
STR
100
AcDbLine
 10
3452.716414584188
 20
891.3827493301317
 30
0.0
 11
3452.716414584188
 21
1071.382749330131
 31
0.0
  0
LINE
  5
27A
330
1F
100
AcDbEntity
  8
STR
100
AcDbLine
 10
3477.716414584188
 20
891.3827493301317
 30
0.0
 11
3477.71641458419
 21
1071.382749330131
 31
0.0
  0
LINE
  5
287
330
1F
100
AcDbEntity
  8
BMK
  6
CENTER
100
AcDbLine
 10
408.4802385754819
 20
1351.382749330131
 30
0.0
 11
535.0682501708579
 21
1351.382749330131
 31
0.0
  0
CIRCLE
  5
288
330
1F
100
AcDbEntity
  8
STR
100
AcDbCircle
 10
471.7742443731699
 20
1351.382749330131
 30
0.0
 40
40.0
  0
CIRCLE
  5
289
330
1F
100
AcDbEntity
  8
STR
100
AcDbCircle
 10
471.7742443731699
 20
1351.382749330131
 30
0.0
 40
20.0
  0
CIRCLE
  5
28A
330
1F
100
AcDbEntity
  8
STR
100
AcDbCircle
 10
471.7742443731699
 20
1621.382749330132
 30
0.0
 40
20.0
  0
CIRCLE
  5
28B
330
1F
100
AcDbEntity
  8
STR
100
AcDbCircle
 10
471.7742443731699
 20
1621.382749330132
 30
0.0
 40
40.0
  0
LINE
  5
28C
330
1F
100
AcDbEntity
  8
BMK
  6
CENTER
100
AcDbLine
 10
408.4802385754819
 20
1621.382749330132
 30
0.0
 11
535.0682501708579
 21
1621.382749330132
 31
0.0
  0
LINE
  5
28D
330
1F
100
AcDbEntity
  8
BMK
  6
CENTER
100
AcDbLine
 10
471.7742443731699
 20
1711.382749330132
 30
0.0
 11
471.7742443731699
 21
1261.382749330131
 31
0.0
  0
LINE
  5
28E
330
1F
100
AcDbEntity
  8
STR
100
AcDbLine
 10
535.0682501708576
 20
1401.382749330131
 30
0.0
 11
535.0682501708579
 21
1206.382749330131
 31
0.0
  0
LINE
  5
28F
330
1F
100
AcDbEntity
  8
STR
100
AcDbLine
 10
416.7889921990365
 20
1401.382749330131
 30
0.0
 11
535.0682501708582
 21
1401.382749330132
 31
0.0
  0
LINE
  5
290
330
1F
100
AcDbEntity
  8
STR
100
AcDbLine
 10
408.4802385754819
 20
1571.382749330132
 30
0.0
 11
535.0682501708579
 21
1571.382749330132
 31
0.0
  0
ARC
  5
291
330
1F
100
AcDbEntity
  8
STR
100
AcDbCircle
 10
510.0682501708579
 20
1766.382749330131
 30
0.0
 40
25.0
100
AcDbArc
 50
0.0
 51
90.0
  0
ARC
  5
292
330
1F
100
AcDbEntity
  8
STR
100
AcDbCircle
 10
417.3643148210037
 20
1766.382749330132
 30
0.0
 40
25.0
100
AcDbArc
 50
90.0
 51
184.7496553952661
  0
ARC
  5
293
330
1F
100
AcDbEntity
  8
STR
100
AcDbCircle
 10
510.0682501708579
 20
1206.382749330131
 30
0.0
 40
25.0
100
AcDbArc
 50
270.0
 51
0.0
  0
ARC
  5
294
330
1F
100
AcDbEntity
  8
STR
100
AcDbCircle
 10
458.0772075764234
 20
1206.382749330131
 30
0.0
 40
25.0
100
AcDbArc
 50
184.7496553952661
 51
270.0
  0
LINE
  5
295
330
1F
100
AcDbEntity
  8
STR
100
AcDbLine
 10
417.3643148210037
 20
1791.382749330131
 30
0.0
 11
510.0682501708579
 21
1791.382749330131
 31
0.0
  0
LINE
  5
296
330
1F
100
AcDbEntity
  8
STR
100
AcDbLine
 10
458.0772075764234
 20
1181.382749330131
 30
0.0
 11
510.0682501708579
 21
1181.382749330131
 31
0.0
  0
LINE
  5
297
330
1F
100
AcDbEntity
  8
STR
100
AcDbLine
 10
433.163057563207
 20
1204.31269398813
 30
0.0
 11
392.4501648077873
 21
1764.31269398813
 31
0.0
  0
LINE
  5
298
330
1F
100
AcDbEntity
  8
STR
100
AcDbLine
 10
535.0682501708579
 20
1766.382749330131
 30
0.0
 11
535.0682501708576
 21
1571.382749330131
 31
0.0
  0
LINE
  5
29A
330
1F
100
AcDbEntity
  8
STR
100
AcDbLine
 10
1241.375040694553
 20
1721.382749330131
 30
0.0
 11
1241.375040694553
 21
1221.382749330132
 31
0.0
  0
LINE
  5
2B3
330
1F
100
AcDbEntity
  8
STR
100
AcDbLine
 10
1747.681831218247
 20
1121.382749330131
 30
0.0
 11
1747.681831218247
 21
991.3827493301317
 31
0.0
  0
LINE
  5
2B4
330
1F
100
AcDbEntity
  8
STR
100
AcDbLine
 10
1962.681831218249
 20
1781.382749330131
 30
0.0
 11
1962.681831218249
 21
1161.382749330131
 31
0.0
  0
LINE
  5
2C4
330
1F
100
AcDbEntity
  8
STR
100
AcDbLine
 10
3374.981387665227
 20
891.3827493301315
 30
0.0
 11
4034.981387665227
 21
891.3827493301319
 31
0.0
  0
LINE
  5
2FA
330
1F
100
AcDbEntity
  8
STR
100
AcDbLine
 10
1992.681831218249
 20
1781.382749330131
 30
0.0
 11
1992.681831218248
 21
1161.382749330131
 31
0.0
  0
LINE
  5
2FC
330
1F
100
AcDbEntity
  8
STR
100
AcDbLine
 10
805.6818312182482
 20
1096.382749330131
 30
0.0
 11
2390.681831218248
 21
1096.382749330131
 31
0.0
  0
CIRCLE
  5
308
330
1F
100
AcDbEntity
  8
STR
100
AcDbCircle
 10
3704.981387665226
 20
1471.382749330131
 30
0.0
 40
75.00000000000023
  0
LINE
  5
30D
330
1F
100
AcDbEntity
  8
BMK
  6
CENTER
100
AcDbLine
 10
3704.981387665226
 20
793.2303966214615
 30
0.0
 11
3704.981387665226
 21
2127.339711741968
 31
0.0
  0
LINE
  5
311
330
1F
100
AcDbEntity
  8
STR
100
AcDbLine
 10
805.6818312182484
 20
1096.382749330133
 30
0.0
 11
805.6818312182482
 21
866.3827493301333
 31
0.0
  0
LINE
  5
312
330
1F
100
AcDbEntity
  8
STR
100
AcDbLine
 10
805.681831218248
 20
866.3827493301315
 30
0.0
 11
2390.681831218248
 21
866.3827493301313
 31
0.0
  0
LINE
  5
42B
330
1F
100
AcDbEntity
  8
STR
100
AcDbLine
 10
2365.681831218249
 20
1121.382749330132
 30
0.0
 11
2365.681831218247
 21
866.3827493301317
 31
0.0
  0
LINE
  5
42C
330
1F
100
AcDbEntity
  8
STR
100
AcDbLine
 10
2522.681831218249
 20
1046.382749330131
 30
0.0
 11
2522.681831218249
 21
916.3827493301315
 31
0.0
  0
LINE
  5
42D
330
1F
100
AcDbEntity
  8
STR
100
AcDbLine
 10
805.6818312182482
 20
891.3827493301317
 30
0.0
 11
2365.681831218247
 21
891.3827493301317
 31
0.0
  0
LINE
  5
42E
330
1F
100
AcDbEntity
  8
STR
100
AcDbLine
 10
805.6818312182484
 20
1071.382749330131
 30
0.0
 11
2365.681831218248
 21
1071.382749330131
 31
0.0
  0
LINE
  5
42F
330
1F
100
AcDbEntity
  8
STR
100
AcDbLine
 10
2390.681831218248
 20
1096.382749330132
 30
0.0
 11
2390.681831218248
 21
1076.382749330131
 31
0.0
  0
LINE
  5
430
330
1F
100
AcDbEntity
  8
STR
100
AcDbLine
 10
2395.681831218249
 20
1071.382749330131
 30
0.0
 11
2497.681831218249
 21
1071.382749330131
 31
0.0
  0
LINE
  5
431
330
1F
100
AcDbEntity
  8
STR
100
AcDbLine
 10
2395.681831218249
 20
891.3827493301317
 30
0.0
 11
2497.681831218249
 21
891.3827493301317
 31
0.0
  0
ARC
  5
433
330
1F
100
AcDbEntity
  8
STR
100
AcDbCircle
 10
2497.681831218249
 20
1046.382749330131
 30
0.0
 40
25.0
100
AcDbArc
 50
0.0
 51
90.0
  0
ARC
  5
434
330
1F
100
AcDbEntity
  8
STR
100
AcDbCircle
 10
2497.681831218249
 20
916.3827493301317
 30
0.0
 40
25.0
100
AcDbArc
 50
270.0
 51
359.9999999999998
  0
ARC
  5
435
330
1F
100
AcDbEntity
  8
STR
100
AcDbCircle
 10
2395.681831218249
 20
1076.382749330131
 30
0.0
 40
5.0
100
AcDbArc
 50
179.9999999999998
 51
270.0
  0
LINE
  5
436
330
1F
100
AcDbEntity
  8
STR
100
AcDbLine
 10
2390.681831218248
 20
886.3827493301316
 30
0.0
 11
2390.681831218248
 21
866.3827493301313
 31
0.0
  0
ARC
  5
437
330
1F
100
AcDbEntity
  8
STR
100
AcDbCircle
 10
2395.681831218249
 20
886.3827493301316
 30
0.0
 40
5.0
100
AcDbArc
 50
90.0
 51
179.9999999999998
  0
LINE
  5
439
330
1F
100
AcDbEntity
  8
STR
100
AcDbLine
 10
2390.681831218248
 20
1076.382749330131
 30
0.0
 11
2390.681831218248
 21
886.3827493301316
 31
0.0
  0
LINE
  5
43C
330
1F
100
AcDbEntity
  8
BMK
100
AcDbLine
 10
192.0272007328567
 20
1471.382749330131
 30
0.0
 11
4275.713704237317
 21
1471.382749330131
 31
0.0
  0
LINE
  5
449
330
1F
100
AcDbEntity
  8
STR
100
AcDbLine
 10
1947.681831218249
 20
1781.382749330131
 30
0.0
 11
1992.681831218249
 21
1781.382749330131
 31
0.0
  0
LINE
  5
44A
330
1F
100
AcDbEntity
  8
STR
100
AcDbLine
 10
1947.681831218248
 20
1161.382749330131
 30
0.0
 11
1992.681831218248
 21
1161.382749330131
 31
0.0
  0
LINE
  5
466
330
1F
100
AcDbEntity
  8
STR
100
AcDbLine
 10
1992.681831218249
 20
1671.382749330131
 30
0.0
 11
2032.681831218249
 21
1671.382749330131
 31
0.0
  0
LINE
  5
467
330
1F
100
AcDbEntity
  8
STR
100
AcDbLine
 10
1992.681831218249
 20
1271.382749330131
 30
0.0
 11
2032.681831218249
 21
1271.382749330131
 31
0.0
  0
LINE
  5
479
330
1F
100
AcDbEntity
  8
STR
100
AcDbLine
 10
2032.681831218249
 20
1781.382749330131
 30
0.0
 11
2032.681831218248
 21
1121.382749330132
 31
0.0
  0
LINE
  5
47C
330
1F
100
AcDbEntity
  8
STR
100
AcDbLine
 10
2182.681831218249
 20
1781.382749330131
 30
0.0
 11
2182.681831218248
 21
1121.382749330132
 31
0.0
  0
LINE
  5
47D
330
1F
100
AcDbEntity
  8
STR
100
AcDbLine
 10
2332.681831218249
 20
1781.382749330131
 30
0.0
 11
2332.681831218249
 21
1546.382749330131
 31
0.0
  0
LINE
  5
47E
330
1F
100
AcDbEntity
  8
STR
100
AcDbLine
 10
2032.681831218249
 20
1781.382749330131
 30
0.0
 11
2332.68183121825
 21
1781.382749330131
 31
0.0
  0
LINE
  5
47F
330
1F
100
AcDbEntity
  8
STR
100
AcDbLine
 10
2032.681831218248
 20
1161.382749330131
 30
0.0
 11
2332.681831218249
 21
1161.382749330131
 31
0.0
  0
LINE
  5
482
330
1F
100
AcDbEntity
  8
STR
100
AcDbLine
 10
2182.681831218249
 20
1396.382749330131
 30
0.0
 11
2332.681831218248
 21
1396.382749330131
 31
0.0
  0
LINE
  5
483
330
1F
100
AcDbEntity
  8
STR
100
AcDbLine
 10
2182.681831218249
 20
1546.382749330131
 30
0.0
 11
2332.681831218249
 21
1546.382749330131
 31
0.0
  0
LINE
  5
484
330
1F
100
AcDbEntity
  8
STR
100
AcDbLine
 10
2332.681831218249
 20
1396.382749330131
 30
0.0
 11
2332.681831218248
 21
1161.382749330131
 31
0.0
  0
LINE
  5
485
330
1F
100
AcDbEntity
  8
STR
100
AcDbLine
 10
2382.681831218249
 20
1696.382749330131
 30
0.0
 11
2382.681831218249
 21
1246.38274933013
 31
0.0
  0
LINE
  5
486
330
1F
100
AcDbEntity
  8
STR
100
AcDbLine
 10
2432.681831218249
 20
1696.382749330131
 30
0.0
 11
2432.681831218249
 21
1246.38274933013
 31
0.0
  0
LINE
  5
48A
330
1F
100
AcDbEntity
  8
STR
100
AcDbLine
 10
2382.681831218249
 20
1696.382749330131
 30
0.0
 11
2432.681831218249
 21
1696.382749330131
 31
0.0
  0
LINE
  5
48B
330
1F
100
AcDbEntity
  8
STR
100
AcDbLine
 10
2382.681831218249
 20
1246.38274933013
 30
0.0
 11
2432.681831218248
 21
1246.38274933013
 31
0.0
  0
LINE
  5
48E
330
1F
100
AcDbEntity
  8
STR
100
AcDbLine
 10
2182.681831218249
 20
1701.382749330131
 30
0.0
 11
2332.68183121825
 21
1701.382749330131
 31
0.0
  0
LINE
  5
48F
330
1F
100
AcDbEntity
  8
STR
100
AcDbLine
 10
2182.681831218249
 20
1241.382749330131
 30
0.0
 11
2332.681831218249
 21
1241.382749330131
 31
0.0
  0
LINE
  5
490
330
1F
100
AcDbEntity
  8
BMK
100
AcDbLine
 10
2148.558890380362
 20
1621.382749330131
 30
0.0
 11
2409.714425979366
 21
1621.382749330131
 31
0.0
  0
LINE
  5
491
330
1F
100
AcDbEntity
  8
BMK
100
AcDbLine
 10
2148.558890380362
 20
1321.382749330131
 30
0.0
 11
2409.714425979365
 21
1321.382749330131
 31
0.0
  0
LINE
  5
493
330
1F
100
AcDbEntity
  8
STR
100
AcDbLine
 10
2332.681831218249
 20
1586.382749330131
 30
0.0
 11
2382.681831218249
 21
1586.382749330131
 31
0.0
  0
LINE
  5
494
330
1F
100
AcDbEntity
  8
STR
100
AcDbLine
 10
2332.681831218249
 20
1356.382749330131
 30
0.0
 11
2382.681831218249
 21
1356.382749330131
 31
0.0
  0
LINE
  5
497
330
1F
100
AcDbEntity
  8
STR
100
AcDbLine
 10
2072.68183121825
 20
2071.382749330131
 30
0.0
 11
2072.68183121825
 21
2001.382749330131
 31
0.0
  0
LINE
  5
498
330
1F
100
AcDbEntity
  8
STR
100
AcDbLine
 10
2142.68183121825
 20
2071.382749330131
 30
0.0
 11
2142.681831218249
 21
2001.382749330131
 31
0.0
  0
LINE
  5
49A
330
1F
100
AcDbEntity
  8
STR
100
AcDbLine
 10
2042.68183121825
 20
2021.382749330131
 30
0.0
 11
2042.68183121825
 21
1831.382749330131
 31
0.0
  0
LINE
  5
49B
330
1F
100
AcDbEntity
  8
STR
100
AcDbLine
 10
2172.68183121825
 20
2021.382749330131
 30
0.0
 11
2172.681831218249
 21
1831.382749330131
 31
0.0
  0
LINE
  5
49E
330
1F
100
AcDbEntity
  8
STR
100
AcDbLine
 10
2042.68183121825
 20
2021.382749330131
 30
0.0
 11
2172.68183121825
 21
2021.382749330131
 31
0.0
  0
LINE
  5
49F
330
1F
100
AcDbEntity
  8
STR
100
AcDbLine
 10
2042.68183121825
 20
1831.382749330131
 30
0.0
 11
2172.681831218249
 21
1831.382749330131
 31
0.0
  0
LINE
  5
4A0
330
1F
100
AcDbEntity
  8
STR
100
AcDbLine
 10
2072.68183121825
 20
1831.382749330131
 30
0.0
 11
2072.68183121825
 21
1781.382749330131
 31
0.0
  0
LINE
  5
4A1
330
1F
100
AcDbEntity
  8
STR
100
AcDbLine
 10
2142.681831218249
 20
1831.382749330131
 30
0.0
 11
2142.681831218249
 21
1781.382749330131
 31
0.0
  0
LINE
  5
4A2
330
1F
100
AcDbEntity
  8
STR
100
AcDbLine
 10
1747.681831218247
 20
991.3827493301317
 30
0.0
 11
2365.681831218248
 21
991.3827493301317
 31
0.0
  0
LINE
  5
4B6
330
1F
100
AcDbEntity
  8
STR
100
AcDbLine
 10
1847.681831218249
 20
1721.382749330132
 30
0.0
 11
1847.681831218248
 21
1221.382749330131
 31
0.0
  0
LINE
  5
4B7
330
1F
100
AcDbEntity
  8
STR
100
AcDbLine
 10
1847.681831218249
 20
1671.382749330131
 30
0.0
 11
1897.681831218249
 21
1671.382749330131
 31
0.0
  0
LINE
  5
4BA
330
1F
100
AcDbEntity
  8
STR
100
AcDbLine
 10
1847.681831218248
 20
1546.382749330131
 30
0.0
 11
1897.681831218248
 21
1546.382749330131
 31
0.0
  0
ARC
  5
4BF
330
1F
100
AcDbEntity
  8
STR
100
AcDbCircle
 10
1897.681831218248
 20
1496.382749330131
 30
0.0
 40
50.0
100
AcDbArc
 50
359.9999999999999
 51
90.0000000000001
  0
ARC
  5
4C1
330
1F
100
AcDbEntity
  8
STR
100
AcDbCircle
 10
1897.681831218249
 20
1721.382749330131
 30
0.0
 40
50.0
100
AcDbArc
 50
270.0
 51
0.0000000000000382
  0
LINE
  5
4C2
330
1F
100
AcDbEntity
  8
STR
100
AcDbLine
 10
1947.681831218249
 20
1781.382749330131
 30
0.0
 11
1947.681831218248
 21
1161.382749330131
 31
0.0
  0
LINE
  5
4CA
330
1F
100
AcDbEntity
  8
STR
100
AcDbLine
 10
1877.681831218249
 20
1636.382749330131
 30
0.0
 11
1877.681831218249
 21
1581.382749330131
 31
0.0
  0
LINE
  5
4CD
330
1F
100
AcDbEntity
  8
STR
100
AcDbLine
 10
1797.681831218248
 20
1636.382749330131
 30
0.0
 11
1797.681831218248
 21
1581.382749330131
 31
0.0
  0
LINE
  5
4D1
330
1F
100
AcDbEntity
  8
STR
100
AcDbLine
 10
1797.681831218249
 20
1636.382749330131
 30
0.0
 11
1877.681831218249
 21
1636.382749330131
 31
0.0
  0
LINE
  5
4D2
330
1F
100
AcDbEntity
  8
STR
100
AcDbLine
 10
1797.681831218248
 20
1581.382749330131
 30
0.0
 11
1877.681831218248
 21
1581.382749330131
 31
0.0
  0
LINE
  5
4D3
330
1F
100
AcDbEntity
  8
STR
100
AcDbLine
 10
1797.681831218248
 20
1361.382749330132
 30
0.0
 11
1877.681831218248
 21
1361.382749330131
 31
0.0
  0
LINE
  5
4D4
330
1F
100
AcDbEntity
  8
STR
100
AcDbLine
 10
1797.681831218249
 20
1306.382749330131
 30
0.0
 11
1877.681831218249
 21
1306.382749330131
 31
0.0
  0
LINE
  5
4D5
330
1F
100
AcDbEntity
  8
STR
100
AcDbLine
 10
1877.681831218249
 20
1306.382749330131
 30
0.0
 11
1877.681831218249
 21
1361.382749330131
 31
0.0
  0
ARC
  5
4D6
330
1F
100
AcDbEntity
  8
STR
100
AcDbCircle
 10
1897.681831218249
 20
1221.382749330131
 30
0.0
 40
50.0
100
AcDbArc
 50
359.9999999999999
 51
90.00000000000003
  0
ARC
  5
4D7
330
1F
100
AcDbEntity
  8
STR
100
AcDbCircle
 10
1897.681831218248
 20
1446.382749330131
 30
0.0
 40
50.0
100
AcDbArc
 50
269.9999999999998
 51
0.0000000000000649
  0
LINE
  5
4D8
330
1F
100
AcDbEntity
  8
STR
100
AcDbLine
 10
1847.681831218248
 20
1396.382749330131
 30
0.0
 11
1897.681831218248
 21
1396.382749330131
 31
0.0
  0
LINE
  5
4D9
330
1F
100
AcDbEntity
  8
STR
100
AcDbLine
 10
1847.681831218249
 20
1271.382749330131
 30
0.0
 11
1897.681831218249
 21
1271.382749330131
 31
0.0
  0
LINE
  5
4DA
330
1F
100
AcDbEntity
  8
STR
100
AcDbLine
 10
1797.681831218248
 20
1306.382749330131
 30
0.0
 11
1797.681831218248
 21
1361.382749330132
 31
0.0
  0
LINE
  5
4E7
330
1F
100
AcDbEntity
  8
STR
100
AcDbLine
 10
3404.981387665226
 20
1161.38274933013
 30
0.0
 11
3404.981387665226
 21
1781.382749330131
 31
0.0
  0
LINE
  5
4E8
330
1F
100
AcDbEntity
  8
STR
100
AcDbLine
 10
4004.981387665226
 20
1161.38274933013
 30
0.0
 11
4004.981387665226
 21
1358.882749330131
 31
0.0
  0
LINE
  5
4E9
330
1F
100
AcDbEntity
  8
STR
100
AcDbLine
 10
3374.981387665227
 20
866.3827493301313
 30
0.0
 11
4034.981387665226
 21
866.3827493301313
 31
0.0
  0
LINE
  5
4EB
330
1F
100
AcDbEntity
  8
STR
100
AcDbLine
 10
3404.981387665226
 20
1781.382749330131
 30
0.0
 11
4004.981387665227
 21
1781.382749330131
 31
0.0
  0
LINE
  5
4ED
330
1F
100
AcDbEntity
  8
STR
100
AcDbLine
 10
3554.981387665225
 20
1831.382749330131
 30
0.0
 11
3854.981387665226
 21
1831.382749330131
 31
0.0
  0
LINE
  5
4EE
330
1F
100
AcDbEntity
  8
STR
100
AcDbLine
 10
3554.981387665225
 20
2021.382749330131
 30
0.0
 11
3854.981387665226
 21
2021.382749330131
 31
0.0
  0
LINE
  5
4F0
330
1F
100
AcDbEntity
  8
STR
100
AcDbLine
 10
3384.981387665226
 20
991.3827493301313
 30
0.0
 11
3452.716414584188
 21
991.3827493301313
 31
0.0
  0
LINE
  5
4F1
330
1F
100
AcDbEntity
  8
STR
100
AcDbLine
 10
3399.981387665226
 20
1071.382749330131
 30
0.0
 11
3504.981387665226
 21
1071.382749330131
 31
0.0
  0
LINE
  5
4F2
330
1F
100
AcDbEntity
  8
STR
100
AcDbLine
 10
3369.981387665226
 20
1096.382749330131
 30
0.0
 11
4039.981387665227
 21
1096.382749330131
 31
0.0
  0
LINE
  5
4F3
330
1F
100
AcDbEntity
  8
STR
100
AcDbLine
 10
3369.981387665226
 20
1121.382749330132
 30
0.0
 11
4039.981387665227
 21
1121.382749330131
 31
0.0
  0
LINE
  5
4F4
330
1F
100
AcDbEntity
  8
STR
100
AcDbLine
 10
3374.981387665227
 20
891.3827493301315
 30
0.0
 11
3374.981387665227
 21
866.3827493301313
 31
0.0
  0
LINE
  5
4F5
330
1F
100
AcDbEntity
  8
STR
100
AcDbLine
 10
4034.981387665226
 20
891.3827493301319
 30
0.0
 11
4034.981387665226
 21
866.3827493301313
 31
0.0
  0
LINE
  5
4FA
330
1F
100
AcDbEntity
  8
STR
100
AcDbLine
 10
3394.981387665226
 20
891.3827493301315
 30
0.0
 11
3452.71641458419
 21
991.3827493301317
 31
0.0
  0
LINE
  5
4FB
330
1F
100
AcDbEntity
  8
STR
100
AcDbLine
 10
4014.981387665226
 20
891.3827493301319
 30
0.0
 11
3957.246360746264
 21
991.3827493301315
 31
0.0
  0
LINE
  5
4FC
330
1F
100
AcDbEntity
  8
STR
100
AcDbLine
 10
3384.981387665226
 20
991.3827493301313
 30
0.0
 11
3384.981387665226
 21
1096.382749330131
 31
0.0
  0
LINE
  5
4FD
330
1F
100
AcDbEntity
  8
STR
100
AcDbLine
 10
4024.981387665227
 20
991.3827493301313
 30
0.0
 11
4024.981387665227
 21
1096.382749330131
 31
0.0
  0
LINE
  5
4FE
330
1F
100
AcDbEntity
  8
STR
100
AcDbLine
 10
3399.981387665226
 20
1071.382749330131
 30
0.0
 11
3399.981387665226
 21
1096.382749330132
 31
0.0
  0
LINE
  5
4FF
330
1F
100
AcDbEntity
  8
STR
100
AcDbLine
 10
4009.981387665226
 20
1071.382749330131
 30
0.0
 11
4009.981387665227
 21
1096.382749330131
 31
0.0
  0
LINE
  5
501
330
1F
100
AcDbEntity
  8
STR
100
AcDbLine
 10
3957.246360746264
 20
991.3827493301315
 30
0.0
 11
4024.981387665227
 21
991.3827493301313
 31
0.0
  0
LINE
  5
502
330
1F
100
AcDbEntity
  8
STR
100
AcDbLine
 10
3389.981387665226
 20
1161.382749330131
 30
0.0
 11
4019.981387665227
 21
1161.38274933013
 31
0.0
  0
LINE
  5
503
330
1F
100
AcDbEntity
  8
STR
100
AcDbLine
 10
3369.981387665226
 20
1096.382749330131
 30
0.0
 11
3369.981387665227
 21
1121.382749330132
 31
0.0
  0
LINE
  5
504
330
1F
100
AcDbEntity
  8
STR
100
AcDbLine
 10
4039.981387665227
 20
1096.382749330131
 30
0.0
 11
4039.981387665227
 21
1121.382749330131
 31
0.0
  0
LINE
  5
505
330
1F
100
AcDbEntity
  8
STR
100
AcDbLine
 10
3389.981387665226
 20
1121.382749330132
 30
0.0
 11
3389.981387665226
 21
1161.38274933013
 31
0.0
  0
LINE
  5
506
330
1F
100
AcDbEntity
  8
STR
100
AcDbLine
 10
4019.981387665227
 20
1121.382749330132
 30
0.0
 11
4019.981387665227
 21
1161.38274933013
 31
0.0
  0
LINE
  5
507
330
1F
100
AcDbEntity
  8
STR
100
AcDbLine
 10
3504.981387665226
 20
1071.382749330131
 30
0.0
 11
3504.981387665227
 21
1096.382749330132
 31
0.0
  0
LINE
  5
508
330
1F
100
AcDbEntity
  8
STR
100
AcDbLine
 10
3904.981387665227
 20
1071.382749330131
 30
0.0
 11
3904.981387665227
 21
1096.382749330131
 31
0.0
  0
LINE
  5
50C
330
1F
100
AcDbEntity
  8
STR
100
AcDbLine
 10
3534.981387665227
 20
991.3827493301317
 30
0.0
 11
3534.981387665226
 21
1096.382749330132
 31
0.0
  0
LINE
  5
50D
330
1F
100
AcDbEntity
  8
STR
100
AcDbLine
 10
3874.981387665227
 20
991.3827493301317
 30
0.0
 11
3874.981387665227
 21
1096.382749330131
 31
0.0
  0
LINE
  5
50E
330
1F
100
AcDbEntity
  8
STR
100
AcDbLine
 10
3554.981387665226
 20
1071.382749330132
 30
0.0
 11
3854.981387665227
 21
1071.382749330131
 31
0.0
  0
LINE
  5
50F
330
1F
100
AcDbEntity
  8
STR
100
AcDbLine
 10
3904.981387665226
 20
1071.382749330131
 30
0.0
 11
4009.981387665226
 21
1071.382749330131
 31
0.0
  0
LINE
  5
511
330
1F
100
AcDbEntity
  8
STR
100
AcDbLine
 10
3554.981387665227
 20
1071.382749330131
 30
0.0
 11
3554.981387665226
 21
1096.382749330132
 31
0.0
  0
LINE
  5
512
330
1F
100
AcDbEntity
  8
STR
100
AcDbLine
 10
3854.981387665227
 20
1071.382749330131
 30
0.0
 11
3854.981387665227
 21
1096.382749330131
 31
0.0
  0
LINE
  5
513
330
1F
100
AcDbEntity
  8
STR
100
AcDbLine
 10
3574.981387665227
 20
991.3827493301317
 30
0.0
 11
3574.981387665227
 21
1071.382749330131
 31
0.0
  0
LINE
  5
514
330
1F
100
AcDbEntity
  8
STR
100
AcDbLine
 10
3834.981387665227
 20
991.3827493301317
 30
0.0
 11
3834.981387665227
 21
1071.382749330131
 31
0.0
  0
LINE
  5
515
330
1F
100
AcDbEntity
  8
STR
100
AcDbLine
 10
3534.981387665226
 20
991.3827493301315
 30
0.0
 11
3574.981387665227
 21
991.3827493301317
 31
0.0
  0
LINE
  5
516
330
1F
100
AcDbEntity
  8
STR
100
AcDbLine
 10
3834.981387665227
 20
991.3827493301317
 30
0.0
 11
3874.981387665227
 21
991.3827493301317
 31
0.0
  0
CIRCLE
  5
51A
330
1F
100
AcDbEntity
  8
STR
100
AcDbCircle
 10
3704.981387665226
 20
1471.382749330131
 30
0.0
 40
55.00000000000023
  0
CIRCLE
  5
51B
330
1F
100
AcDbEntity
  8
STR
100
AcDbCircle
 10
3704.981387665226
 20
1471.382749330131
 30
0.0
 40
95.00000000000023
  0
LINE
  5
51C
330
1F
100
AcDbEntity
  8
STR
100
AcDbLine
 10
3404.981387665225
 20
1321.382749330131
 30
0.0
 11
4004.981387665226
 21
1321.382749330131
 31
0.0
  0
LINE
  5
520
330
1F
100
AcDbEntity
  8
STR
100
AcDbLine
 10
3614.981387665226
 20
1281.382749330131
 30
0.0
 11
3794.981387665226
 21
1281.382749330131
 31
0.0
  0
LINE
  5
521
330
1F
100
AcDbEntity
  8
STR
100
AcDbLine
 10
3414.981387665227
 20
1321.382749330131
 30
0.0
 11
3414.981387665227
 21
1421.382749330131
 31
0.0
  0
LINE
  5
523
330
1F
100
AcDbEntity
  8
STR
100
AcDbLine
 10
3614.981387665226
 20
1321.382749330131
 30
0.0
 11
3614.981387665226
 21
1421.382749330131
 31
0.0
  0
LINE
  5
525
330
1F
100
AcDbEntity
  8
STR
100
AcDbLine
 10
3414.981387665227
 20
1421.382749330131
 30
0.0
 11
3614.981387665226
 21
1421.382749330131
 31
0.0
  0
LINE
  5
526
330
1F
100
AcDbEntity
  8
STR
100
AcDbLine
 10
3614.981387665226
 20
1281.382749330131
 30
0.0
 11
3614.981387665226
 21
1161.382749330131
 31
0.0
  0
LINE
  5
527
330
1F
100
AcDbEntity
  8
STR
100
AcDbLine
 10
3794.981387665226
 20
1281.382749330131
 30
0.0
 11
3794.981387665226
 21
1161.382749330131
 31
0.0
  0
LINE
  5
528
330
1F
100
AcDbEntity
  8
STR
100
AcDbLine
 10
3794.981387665226
 20
1321.382749330131
 30
0.0
 11
3794.981387665227
 21
1421.382749330131
 31
0.0
  0
LINE
  5
529
330
1F
100
AcDbEntity
  8
STR
100
AcDbLine
 10
3994.981387665226
 20
1421.382749330131
 30
0.0
 11
3794.981387665227
 21
1421.382749330131
 31
0.0
  0
LINE
  5
52A
330
1F
100
AcDbEntity
  8
STR
100
AcDbLine
 10
3994.981387665226
 20
1321.382749330131
 30
0.0
 11
3994.981387665226
 21
1421.382749330131
 31
0.0
  0
LINE
  5
52B
330
1F
100
AcDbEntity
  8
STR
100
AcDbLine
 10
3614.981387665226
 20
1621.382749330131
 30
0.0
 11
3614.981387665226
 21
1521.382749330131
 31
0.0
  0
LINE
  5
52C
330
1F
100
AcDbEntity
  8
STR
100
AcDbLine
 10
3404.981387665225
 20
1621.382749330131
 30
0.0
 11
4004.981387665226
 21
1621.382749330132
 31
0.0
  0
LINE
  5
52D
330
1F
100
AcDbEntity
  8
STR
100
AcDbLine
 10
3414.981387665227
 20
1521.382749330131
 30
0.0
 11
3614.981387665226
 21
1521.382749330131
 31
0.0
  0
LINE
  5
52E
330
1F
100
AcDbEntity
  8
STR
100
AcDbLine
 10
3414.981387665227
 20
1621.382749330131
 30
0.0
 11
3414.981387665227
 21
1521.382749330131
 31
0.0
  0
LINE
  5
52F
330
1F
100
AcDbEntity
  8
STR
100
AcDbLine
 10
3994.981387665226
 20
1521.382749330131
 30
0.0
 11
3794.981387665227
 21
1521.382749330131
 31
0.0
  0
LINE
  5
530
330
1F
100
AcDbEntity
  8
STR
100
AcDbLine
 10
3794.981387665226
 20
1621.382749330131
 30
0.0
 11
3794.981387665227
 21
1521.382749330131
 31
0.0
  0
LINE
  5
531
330
1F
100
AcDbEntity
  8
STR
100
AcDbLine
 10
3994.981387665226
 20
1621.382749330131
 30
0.0
 11
3994.981387665226
 21
1521.382749330131
 31
0.0
  0
LINE
  5
532
330
1F
100
AcDbEntity
  8
STR
100
AcDbLine
 10
3794.981387665226
 20
1661.382749330131
 30
0.0
 11
3794.981387665226
 21
1781.382749330131
 31
0.0
  0
LINE
  5
533
330
1F
100
AcDbEntity
  8
STR
100
AcDbLine
 10
3614.981387665226
 20
1661.382749330131
 30
0.0
 11
3614.981387665226
 21
1781.382749330131
 31
0.0
  0
LINE
  5
534
330
1F
100
AcDbEntity
  8
STR
100
AcDbLine
 10
3614.981387665226
 20
1661.382749330131
 30
0.0
 11
3794.981387665226
 21
1661.382749330131
 31
0.0
  0
LINE
  5
535
330
1F
100
AcDbEntity
  8
STR
100
AcDbLine
 10
3554.981387665225
 20
1831.382749330131
 30
0.0
 11
3554.981387665225
 21
2021.382749330131
 31
0.0
  0
LINE
  5
536
330
1F
100
AcDbEntity
  8
STR
100
AcDbLine
 10
3854.981387665226
 20
1831.382749330131
 30
0.0
 11
3854.981387665226
 21
2021.382749330131
 31
0.0
  0
LINE
  5
537
330
1F
100
AcDbEntity
  8
STR
100
AcDbLine
 10
3614.981387665226
 20
2001.382749330131
 30
0.0
 11
3614.981387665226
 21
2071.382749330131
 31
0.0
  0
LINE
  5
539
330
1F
100
AcDbEntity
  8
STR
100
AcDbLine
 10
3794.981387665226
 20
2001.382749330131
 30
0.0
 11
3794.981387665226
 21
2071.382749330131
 31
0.0
  0
LINE
  5
53A
330
1F
100
AcDbEntity
  8
STR
100
AcDbLine
 10
4029.981387665226
 20
1358.88274933013
 30
0.0
 11
4029.981387665226
 21
1446.382749330131
 31
0.0
  0
LINE
  5
53B
330
1F
100
AcDbEntity
  8
STR
100
AcDbLine
 10
4029.981387665226
 20
1446.382749330131
 30
0.0
 11
4179.981387665225
 21
1446.382749330131
 31
0.0
  0
LINE
  5
53E
330
1F
100
AcDbEntity
  8
STR
100
AcDbLine
 10
3994.981387665226
 20
1383.882749330131
 30
0.0
 11
4004.981387665226
 21
1383.882749330131
 31
0.0
  0
LINE
  5
53F
330
1F
100
AcDbEntity
  8
STR
100
AcDbLine
 10
3994.981387665226
 20
1358.882749330131
 30
0.0
 11
4029.981387665226
 21
1358.88274933013
 31
0.0
  0
LINE
  5
540
330
1F
100
AcDbEntity
  8
STR
100
AcDbLine
 10
4004.981387665226
 20
1383.882749330131
 30
0.0
 11
4004.981387665227
 21
1781.382749330131
 31
0.0
  0
LINE
  5
541
330
1F
100
AcDbEntity
  8
STR
100
AcDbLine
 10
4179.981387665225
 20
1446.382749330131
 30
0.0
 11
4179.981387665225
 21
1471.382749330131
 31
0.0
  0
LINE
  5
542
330
1F
100
AcDbEntity
  8
STR
100
AcDbLine
 10
4179.981387665225
 20
1471.382749330131
 30
0.0
 11
4004.981387665226
 21
1471.382749330131
 31
0.0
  0
LINE
  5
543
330
1F
100
AcDbEntity
  8
STR
100
AcDbLine
 10
3584.981387665225
 20
1781.382749330131
 30
0.0
 11
3584.981387665225
 21
1831.382749330131
 31
0.0
  0
LINE
  5
544
330
1F
100
AcDbEntity
  8
STR
100
AcDbLine
 10
3824.981387665227
 20
1781.382749330131
 30
0.0
 11
3824.981387665227
 21
1831.382749330131
 31
0.0
  0
LINE
  5
545
330
1F
100
AcDbEntity
  8
STR
100
AcDbLine
 10
4029.981387665227
 20
1471.382749330131
 30
0.0
 11
4029.981387665226
 21
1631.382749330131
 31
0.0
  0
LINE
  5
546
330
1F
100
AcDbEntity
  8
STR
100
AcDbLine
 10
4154.981387665226
 20
1471.382749330131
 30
0.0
 11
4154.981387665226
 21
1631.382749330131
 31
0.0
  0
LINE
  5
548
330
1F
100
AcDbEntity
  8
STR
100
AcDbLine
 10
4154.981387665226
 20
1631.382749330131
 30
0.0
 11
4029.981387665226
 21
1631.382749330131
 31
0.0
  0
LINE
  5
549
330
1F
100
AcDbEntity
  8
STR
100
AcDbLine
 10
4129.981387665225
 20
1751.382749330131
 30
0.0
 11
4054.981387665227
 21
1751.382749330131
 31
0.0
  0
LINE
  5
54A
330
1F
100
AcDbEntity
  8
STR
100
AcDbLine
 10
4054.981387665227
 20
1631.382749330131
 30
0.0
 11
4054.981387665226
 21
1751.382749330131
 31
0.0
  0
LINE
  5
54B
330
1F
100
AcDbEntity
  8
STR
100
AcDbLine
 10
4129.981387665226
 20
1631.382749330131
 30
0.0
 11
4129.981387665226
 21
1751.382749330131
 31
0.0
  0
LINE
  5
54E
330
1F
100
AcDbEntity
  8
STR
100
AcDbLine
 10
3634.981387665227
 20
951.3827493301317
 30
0.0
 11
3634.981387665226
 21
1011.382749330131
 31
0.0
  0
LINE
  5
54F
330
1F
100
AcDbEntity
  8
STR
100
AcDbLine
 10
3774.981387665226
 20
951.3827493301317
 30
0.0
 11
3774.981387665227
 21
1011.382749330131
 31
0.0
  0
LINE
  5
551
330
1F
100
AcDbEntity
  8
STR
100
AcDbLine
 10
3634.981387665226
 20
1011.382749330131
 30
0.0
 11
3774.981387665227
 21
1011.382749330131
 31
0.0
  0
LINE
  5
552
330
1F
100
AcDbEntity
  8
STR
100
AcDbLine
 10
3634.981387665226
 20
951.3827493301317
 30
0.0
 11
3774.981387665226
 21
951.3827493301318
 31
0.0
  0
LINE
  5
553
330
1F
100
AcDbEntity
  8
BMK
100
AcDbLine
 10
3604.981387665227
 20
981.3827493301316
 30
0.0
 11
3804.981387665227
 21
981.3827493301319
 31
0.0
  0
LINE
  5
8F8
330
1F
100
AcDbEntity
  8
STR
100
AcDbLine
 10
2430.681831218249
 20
1051.382749330131
 30
0.0
 11
2430.681831218248
 21
911.3827493301316
 31
0.0
  0
LINE
  5
B6F
330
1F
100
AcDbEntity
  8
STR
100
AcDbLine
 10
2416.931831218248
 20
1121.382749330132
 30
0.0
 11
2671.169232216929
 21
1121.382749330132
 31
0.0
  0
LINE
  5
B70
330
1F
100
AcDbEntity
  8
STR
100
AcDbLine
 10
2642.529155551721
 20
1471.382749330131
 30
0.0
 11
2671.169232216929
 21
1471.382749330131
 31
0.0
  0
LINE
  5
B71
330
1F
100
AcDbEntity
  8
STR
100
AcDbLine
 10
2669.919232216929
 20
1171.382749330132
 30
0.0
 11
2669.919232216929
 21
1421.382749330131
 31
0.0
  0
LINE
  5
B75
330
1F
100
AcDbEntity
  8
STR
100
AcDbLine
 10
2416.931831218248
 20
866.3827493301313
 30
0.0
 11
2671.169232216929
 21
866.3827493301313
 31
0.0
  0
LINE
  5
B76
330
1F
100
AcDbEntity
  8
STR
100
AcDbLine
 10
2416.931831218248
 20
1121.382749330132
 30
0.0
 11
2671.169232216929
 21
1121.382749330132
 31
0.0
  0
LINE
  5
B77
330
1F
100
AcDbEntity
  8
STR
100
AcDbLine
 10
2669.919232216928
 20
916.3827493301313
 30
0.0
 11
2669.919232216929
 21
1071.382749330132
 31
0.0
  0
LINE
  5
B7B
330
1F
100
AcDbEntity
  8
STR
100
AcDbLine
 10
1962.681831218249
 20
2122.340279086249
 30
0.0
 11
1962.681831218249
 21
2280.890563461376
 31
0.0
  0
LINE
  5
B7C
330
1F
100
AcDbEntity
  8
STR
100
AcDbLine
 10
2522.681831218249
 20
2122.340279086249
 30
0.0
 11
2522.681831218249
 21
2280.890563461376
 31
0.0
  0
LINE
  5
B7D
330
1F
100
AcDbEntity
  8
STR
100
AcDbLine
 10
2012.681831218249
 20
2279.640563461376
 30
0.0
 11
2472.681831218249
 21
2279.640563461376
 31
0.0
  0
LINE
  5
B81
330
1F
100
AcDbEntity
  8
STR
100
AcDbLine
 10
2365.681831218247
 20
840.7577493301314
 30
0.0
 11
2365.681831218247
 21
638.7135665452006
 31
0.0
  0
LINE
  5
B82
330
1F
100
AcDbEntity
  8
STR
100
AcDbLine
 10
2522.681831218249
 20
640.5885665452005
 30
0.0
 11
2522.681831218249
 21
641.2135665452005
 31
0.0
  0
LINE
  5
B83
330
1F
100
AcDbEntity
  8
STR
100
AcDbLine
 10
2315.681831218248
 20
639.9635665452006
 30
0.0
 11
2265.681831218248
 21
639.9635665452006
 31
0.0
  0
LINE
  5
B84
330
1F
100
AcDbEntity
  8
STR
100
AcDbLine
 10
2572.681831218249
 20
639.9635665452006
 30
0.0
 11
2622.681831218249
 21
639.9635665452006
 31
0.0
  0
LINE
  5
B86
330
1F
100
AcDbEntity
  8
STR
100
AcDbLine
 10
2365.681831218247
 20
639.9635665452006
 30
0.0
 11
2522.681831218249
 21
639.9635665452006
 31
0.0
  0
LINE
  5
B89
330
1F
100
AcDbEntity
  8
STR
100
AcDbLine
 10
805.681831218248
 20
840.7577493301316
 30
0.0
 11
805.681831218248
 21
464.5002043860077
 31
0.0
  0
LINE
  5
B8A
330
1F
100
AcDbEntity
  8
STR
100
AcDbLine
 10
2522.681831218249
 20
840.7577493301314
 30
0.0
 11
2522.681831218249
 21
464.5002043860077
 31
0.0
  0
LINE
  5
B8B
330
1F
100
AcDbEntity
  8
STR
100
AcDbLine
 10
855.681831218248
 20
465.7502043860076
 30
0.0
 11
2472.681831218249
 21
465.7502043860076
 31
0.0
  0
LINE
  5
B8F
330
1F
100
AcDbEntity
  8
STR
100
AcDbLine
 10
2168.30683121825
 20
2071.382749330131
 30
0.0
 11
2986.110304513619
 21
2071.382749330131
 31
0.0
  0
LINE
  5
B90
330
1F
100
AcDbEntity
  8
STR
100
AcDbLine
 10
2416.306831218248
 20
866.3827493301313
 30
0.0
 11
2986.110304513619
 21
866.3827493301313
 31
0.0
  0
LINE
  5
B91
330
1F
100
AcDbEntity
  8
STR
100
AcDbLine
 10
2984.860304513619
 20
2021.382749330131
 30
0.0
 11
2984.860304513619
 21
916.3827493301313
 31
0.0
  0
LINE
  5
B95
330
1F
100
AcDbEntity
  8
STR
100
AcDbLine
 10
958.9288672725585
 20
1721.382749330132
 30
0.0
 11
958.3038672725585
 21
1721.382749330132
 31
0.0
  0
LINE
  5
B96
330
1F
100
AcDbEntity
  8
STR
100
AcDbLine
 10
958.9288672725583
 20
1221.382749330131
 30
0.0
 11
958.3038672725583
 21
1221.382749330131
 31
0.0
  0
LINE
  5
B97
330
1F
100
AcDbEntity
  8
STR
100
AcDbLine
 10
959.5538672725584
 20
1671.382749330132
 30
0.0
 11
959.5538672725583
 21
1271.382749330131
 31
0.0
  0
MTEXT
  5
B9A
330
1F
100
AcDbEntity
  8
STR
100
AcDbMText
 10
899.5538672725583
 20
1471.382749330132
 30
0.0
 40
60.0
 41
0.0
 71
     5
 72
     1
  1
　
 11
0.0000000000000001
 21
1.0
 31
0.0
1001
ACAD
1000
MTEXTBEGIN
1070
    73
1070
     1
1070
    44
1040
1.0
1070
    74
1070
     0
1000
MTEXTEND
  0
LINE
  5
B9B
330
1F
100
AcDbEntity
  8
STR
100
AcDbLine
 10
805.681831218248
 20
840.7577493301316
 30
0.0
 11
805.681831218248
 21
638.7135665452006
 31
0.0
  0
LINE
  5
B9C
330
1F
100
AcDbEntity
  8
STR
100
AcDbLine
 10
2365.681831218247
 20
840.7577493301314
 30
0.0
 11
2365.681831218247
 21
638.7135665452006
 31
0.0
  0
LINE
  5
B9D
330
1F
100
AcDbEntity
  8
STR
100
AcDbLine
 10
855.681831218248
 20
639.9635665452006
 30
0.0
 11
2315.681831218248
 21
639.9635665452006
 31
0.0
  0
LINE
  5
BA1
330
1F
100
AcDbEntity
  8
STR
100
AcDbLine
 10
780.0568312182483
 20
1096.382749330133
 30
0.0
 11
716.1380384043732
 21
1096.382749330133
 31
0.0
  0
LINE
  5
BA2
330
1F
100
AcDbEntity
  8
STR
100
AcDbLine
 10
780.0568312182483
 20
1121.382749330132
 30
0.0
 11
716.1380384043732
 21
1121.382749330132
 31
0.0
  0
LINE
  5
BA3
330
1F
100
AcDbEntity
  8
STR
100
AcDbLine
 10
717.3880384043732
 20
1046.382749330133
 30
0.0
 11
717.3880384043732
 21
996.3827493301334
 31
0.0
  0
LINE
  5
BA4
330
1F
100
AcDbEntity
  8
STR
100
AcDbLine
 10
717.3880384043732
 20
1171.382749330132
 30
0.0
 11
717.3880384043732
 21
1221.382749330132
 31
0.0
  0
LINE
  5
BA6
330
1F
100
AcDbEntity
  8
STR
100
AcDbLine
 10
717.3880384043732
 20
1096.382749330133
 30
0.0
 11
717.3880384043732
 21
1121.382749330132
 31
0.0
  0
LINE
  5
BA9
330
1F
100
AcDbEntity
  8
STR
100
AcDbLine
 10
780.0568312182481
 20
866.3827493301335
 30
0.0
 11
716.1380384043732
 21
866.3827493301337
 31
0.0
  0
LINE
  5
BAA
330
1F
100
AcDbEntity
  8
STR
100
AcDbLine
 10
780.0568312182483
 20
1096.382749330133
 30
0.0
 11
716.1380384043732
 21
1096.382749330133
 31
0.0
  0
LINE
  5
BAB
330
1F
100
AcDbEntity
  8
STR
100
AcDbLine
 10
717.3880384043732
 20
916.3827493301337
 30
0.0
 11
717.3880384043732
 21
1046.382749330133
 31
0.0
  0
LINE
  5
BAF
330
1F
100
AcDbEntity
  8
STR
100
AcDbLine
 10
4029.981387665226
 20
1402.007749330131
 30
0.0
 11
4029.981387665226
 21
1397.232333774187
 31
0.0
  0
LINE
  5
BB0
330
1F
100
AcDbEntity
  8
STR
100
AcDbLine
 10
4179.981387665225
 20
1399.107333774187
 30
0.0
 11
4179.981387665225
 21
1399.732333774187
 31
0.0
  0
LINE
  5
BB1
330
1F
100
AcDbEntity
  8
STR
100
AcDbLine
 10
3979.981387665226
 20
1398.482333774187
 30
0.0
 11
3929.981387665225
 21
1398.482333774187
 31
0.0
  0
LINE
  5
BB2
330
1F
100
AcDbEntity
  8
STR
100
AcDbLine
 10
4229.981387665225
 20
1398.482333774187
 30
0.0
 11
4469.981387665226
 21
1398.482333774187
 31
0.0
  0
LINE
  5
BB3
330
1F
100
AcDbEntity
  8
STR
100
AcDbLine
 10
4029.981387665226
 20
1398.482333774187
 30
0.0
 11
4179.981387665225
 21
1398.482333774187
 31
0.0
  0
LINE
  5
BB7
330
1F
100
AcDbEntity
  8
STR
100
AcDbLine
 10
3374.981387665227
 20
719.1996157890389
 30
0.0
 11
3374.981387665227
 21
571.7314864253821
 31
0.0
  0
LINE
  5
BB8
330
1F
100
AcDbEntity
  8
STR
100
AcDbLine
 10
4034.981387665226
 20
719.1996157890389
 30
0.0
 11
4034.981387665226
 21
571.7314864253821
 31
0.0
  0
LINE
  5
BB9
330
1F
100
AcDbEntity
  8
STR
100
AcDbLine
 10
3424.981387665226
 20
572.9814864253821
 30
0.0
 11
3984.981387665226
 21
572.9814864253821
 31
0.0
  0
LINE
  5
BBD
330
1F
100
AcDbEntity
  8
STR
100
AcDbLine
 10
2641.904155551721
 20
866.3827493301313
 30
0.0
 11
2827.911679102993
 21
866.3827493301313
 31
0.0
  0
LINE
  5
BBE
330
1F
100
AcDbEntity
  8
STR
100
AcDbLine
 10
2641.904155551721
 20
1471.382749330131
 30
0.0
 11
2827.911679102994
 21
1471.382749330131
 31
0.0
  0
LINE
  5
BBF
330
1F
100
AcDbEntity
  8
STR
100
AcDbLine
 10
2826.661679102993
 20
916.3827493301313
 30
0.0
 11
2826.661679102993
 21
1421.382749330131
 31
0.0
  0
LINE
  5
BC3
330
1F
100
AcDbEntity
  8
STR
100
AcDbLine
 10
3404.981387665226
 20
2122.340279086249
 30
0.0
 11
3404.981387665226
 21
2280.890563461376
 31
0.0
  0
LINE
  5
BC4
330
1F
100
AcDbEntity
  8
STR
100
AcDbLine
 10
4004.981387665227
 20
2122.340279086249
 30
0.0
 11
4004.981387665227
 21
2280.890563461376
 31
0.0
  0
LINE
  5
BC5
330
1F
100
AcDbEntity
  8
STR
100
AcDbLine
 10
3454.981387665226
 20
2279.640563461376
 30
0.0
 11
3954.981387665227
 21
2279.640563461376
 31
0.0
  0
LINE
  5
BC9
330
1F
100
AcDbEntity
  8
STR
  6
BYBLOCK
 62
     0
100
AcDbLine
 10
2472.681831218249
 20
479.1476638860077
 30
0.0
 11
2522.681831218249
 21
465.7502043860076
 31
0.0
  0
LINE
  5
BCA
330
1F
100
AcDbEntity
  8
STR
  6
BYBLOCK
 62
     0
100
AcDbLine
 10
2522.681831218249
 20
465.7502043860076
 30
0.0
 11
2472.681831218249
 21
452.3527448860076
 31
0.0
  0
LINE
  5
BCB
330
1F
100
AcDbEntity
  8
STR
  6
BYBLOCK
 62
     0
100
AcDbLine
 10
2522.681831218249
 20
465.7502043860076
 30
0.0
 11
2472.681831218249
 21
465.7502043860076
 31
0.0
  0
TEXT
  5
BCC
330
1F
100
AcDbEntity
  8
STR
100
AcDbText
 10
2374.181831218248
 20
669.9635665452006
 30
0.0
 40
60.0
  1
157
100
AcDbText
  0
LINE
  5
BCD
330
1F
100
AcDbEntity
  8
STR
  6
BYBLOCK
 62
     0
100
AcDbLine
 10
2472.681831218249
 20
2293.038022961376
 30
0.0
 11
2522.681831218249
 21
2279.640563461376
 31
0.0
  0
LINE
  5
BCE
330
1F
100
AcDbEntity
  8
STR
  6
BYBLOCK
 62
     0
100
AcDbLine
 10
2522.681831218249
 20
2279.640563461376
 30
0.0
 11
2472.681831218249
 21
2266.243103961377
 31
0.0
  0
LINE
  5
BCF
330
1F
100
AcDbEntity
  8
STR
  6
BYBLOCK
 62
     0
100
AcDbLine
 10
2522.681831218249
 20
2279.640563461376
 30
0.0
 11
2472.681831218249
 21
2279.640563461376
 31
0.0
  0
LINE
  5
BD0
330
1F
100
AcDbEntity
  8
STR
  6
BYBLOCK
 62
     0
100
AcDbLine
 10
855.681831218248
 20
452.3527448860076
 30
0.0
 11
805.681831218248
 21
465.7502043860076
 31
0.0
  0
LINE
  5
BD1
330
1F
100
AcDbEntity
  8
STR
  6
BYBLOCK
 62
     0
100
AcDbLine
 10
805.681831218248
 20
465.7502043860076
 30
0.0
 11
855.681831218248
 21
479.1476638860076
 31
0.0
  0
LINE
  5
BD2
330
1F
100
AcDbEntity
  8
STR
  6
BYBLOCK
 62
     0
100
AcDbLine
 10
805.681831218248
 20
465.7502043860076
 30
0.0
 11
855.681831218248
 21
465.7502043860076
 31
0.0
  0
TEXT
  5
BD3
330
1F
100
AcDbEntity
  8
STR
100
AcDbText
 10
687.388038404373
 20
906.3827493301335
 30
0.0
 40
60.0
  1
230
 50
90.0
100
AcDbText
  0
LINE
  5
BD4
330
1F
100
AcDbEntity
  8
STR
  6
BYBLOCK
 62
     0
100
AcDbLine
 10
855.681831218248
 20
626.5661070452006
 30
0.0
 11
805.681831218248
 21
639.9635665452006
 31
0.0
  0
LINE
  5
BD5
330
1F
100
AcDbEntity
  8
STR
  6
BYBLOCK
 62
     0
100
AcDbLine
 10
805.681831218248
 20
639.9635665452006
 30
0.0
 11
855.681831218248
 21
653.3610260452006
 31
0.0
  0
LINE
  5
BD6
330
1F
100
AcDbEntity
  8
STR
  6
BYBLOCK
 62
     0
100
AcDbLine
 10
805.681831218248
 20
639.9635665452006
 30
0.0
 11
855.681831218248
 21
639.9635665452006
 31
0.0
  0
LINE
  5
BD7
330
1F
100
AcDbEntity
  8
STR
  6
BYBLOCK
 62
     0
100
AcDbLine
 10
730.7854979043732
 20
916.3827493301337
 30
0.0
 11
717.3880384043732
 21
866.3827493301337
 31
0.0
  0
LINE
  5
BD8
330
1F
100
AcDbEntity
  8
STR
  6
BYBLOCK
 62
     0
100
AcDbLine
 10
717.3880384043732
 20
866.3827493301337
 30
0.0
 11
703.9905789043732
 21
916.3827493301337
 31
0.0
  0
LINE
  5
BD9
330
1F
100
AcDbEntity
  8
STR
  6
BYBLOCK
 62
     0
100
AcDbLine
 10
717.3880384043732
 20
866.3827493301337
 30
0.0
 11
717.3880384043732
 21
916.3827493301337
 31
0.0
  0
LINE
  5
BDA
330
1F
100
AcDbEntity
  8
STR
  6
BYBLOCK
 62
     0
100
AcDbLine
 10
730.7854979043732
 20
1171.382749330132
 30
0.0
 11
717.3880384043732
 21
1121.382749330132
 31
0.0
  0
LINE
  5
BDB
330
1F
100
AcDbEntity
  8
STR
  6
BYBLOCK
 62
     0
100
AcDbLine
 10
717.3880384043732
 20
1121.382749330132
 30
0.0
 11
703.9905789043732
 21
1171.382749330132
 31
0.0
  0
LINE
  5
BDC
330
1F
100
AcDbEntity
  8
STR
  6
BYBLOCK
 62
     0
100
AcDbLine
 10
717.3880384043732
 20
1121.382749330132
 30
0.0
 11
717.3880384043732
 21
1171.382749330132
 31
0.0
  0
TEXT
  5
BDD
330
1F
100
AcDbEntity
  8
STR
100
AcDbText
 10
687.3880384043732
 20
1096.820372800891
 30
0.0
 40
60.0
  1
25
 50
90.0
100
AcDbText
  0
LINE
  5
BDE
330
1F
100
AcDbEntity
  8
STR
  6
BYBLOCK
 62
     0
100
AcDbLine
 10
703.9905789043732
 20
1046.382749330133
 30
0.0
 11
717.3880384043732
 21
1096.382749330133
 31
0.0
  0
LINE
  5
BDF
330
1F
100
AcDbEntity
  8
STR
  6
BYBLOCK
 62
     0
100
AcDbLine
 10
717.3880384043732
 20
1096.382749330133
 30
0.0
 11
730.7854979043732
 21
1046.382749330133
 31
0.0
  0
LINE
  5
BE0
330
1F
100
AcDbEntity
  8
STR
  6
BYBLOCK
 62
     0
100
AcDbLine
 10
717.3880384043732
 20
1096.382749330133
 30
0.0
 11
717.3880384043732
 21
1046.382749330133
 31
0.0
  0
LINE
  5
BE1
330
1F
100
AcDbEntity
  8
STR
  6
BYBLOCK
 62
     0
100
AcDbLine
 10
703.9905789043732
 20
1046.382749330133
 30
0.0
 11
717.3880384043732
 21
1096.382749330133
 31
0.0
  0
LINE
  5
BE2
330
1F
100
AcDbEntity
  8
STR
  6
BYBLOCK
 62
     0
100
AcDbLine
 10
717.3880384043732
 20
1096.382749330133
 30
0.0
 11
730.7854979043732
 21
1046.382749330133
 31
0.0
  0
LINE
  5
BE3
330
1F
100
AcDbEntity
  8
STR
  6
BYBLOCK
 62
     0
100
AcDbLine
 10
717.3880384043732
 20
1096.382749330133
 30
0.0
 11
717.3880384043732
 21
1046.382749330133
 31
0.0
  0
TEXT
  5
BE4
330
1F
100
AcDbEntity
  8
STR
100
AcDbText
 10
1574.181831218248
 20
495.7502043860077
 30
0.0
 40
60.0
  1
1717
100
AcDbText
  0
TEXT
  5
BE5
330
1F
100
AcDbEntity
  8
STR
100
AcDbText
 10
1490.681831218248
 20
669.9635665452006
 30
0.0
 40
60.0
  1
1560
100
AcDbText
  0
LINE
  5
BE6
330
1F
100
AcDbEntity
  8
STR
  6
BYBLOCK
 62
     0
100
AcDbLine
 10
972.9513267725582
 20
1271.382749330131
 30
0.0
 11
959.5538672725583
 21
1221.382749330131
 31
0.0
  0
LINE
  5
BE7
330
1F
100
AcDbEntity
  8
STR
  6
BYBLOCK
 62
     0
100
AcDbLine
 10
959.5538672725583
 20
1221.382749330131
 30
0.0
 11
946.1564077725583
 21
1271.382749330131
 31
0.0
  0
LINE
  5
BE8
330
1F
100
AcDbEntity
  8
STR
  6
BYBLOCK
 62
     0
100
AcDbLine
 10
959.5538672725583
 20
1221.382749330131
 30
0.0
 11
959.5538672725583
 21
1271.382749330131
 31
0.0
  0
LINE
  5
BE9
330
1F
100
AcDbEntity
  8
STR
  6
BYBLOCK
 62
     0
100
AcDbLine
 10
2315.681831218248
 20
653.3610260452006
 30
0.0
 11
2365.681831218247
 21
639.9635665452006
 31
0.0
  0
LINE
  5
BEA
330
1F
100
AcDbEntity
  8
STR
  6
BYBLOCK
 62
     0
100
AcDbLine
 10
2365.681831218247
 20
639.9635665452006
 30
0.0
 11
2315.681831218248
 21
626.5661070452006
 31
0.0
  0
LINE
  5
BEB
330
1F
100
AcDbEntity
  8
STR
  6
BYBLOCK
 62
     0
100
AcDbLine
 10
2365.681831218247
 20
639.9635665452006
 30
0.0
 11
2315.681831218248
 21
639.9635665452006
 31
0.0
  0
LINE
  5
BEC
330
1F
100
AcDbEntity
  8
STR
  6
BYBLOCK
 62
     0
100
AcDbLine
 10
2315.681831218248
 20
653.3610260452006
 30
0.0
 11
2365.681831218247
 21
639.9635665452006
 31
0.0
  0
LINE
  5
BED
330
1F
100
AcDbEntity
  8
STR
  6
BYBLOCK
 62
     0
100
AcDbLine
 10
2365.681831218247
 20
639.9635665452006
 30
0.0
 11
2315.681831218248
 21
626.5661070452006
 31
0.0
  0
LINE
  5
BEE
330
1F
100
AcDbEntity
  8
STR
  6
BYBLOCK
 62
     0
100
AcDbLine
 10
2365.681831218247
 20
639.9635665452006
 30
0.0
 11
2315.681831218248
 21
639.9635665452006
 31
0.0
  0
LINE
  5
BEF
330
1F
100
AcDbEntity
  8
STR
  6
BYBLOCK
 62
     0
100
AcDbLine
 10
946.1564077725585
 20
1671.382749330132
 30
0.0
 11
959.5538672725584
 21
1721.382749330132
 31
0.0
  0
LINE
  5
BF0
330
1F
100
AcDbEntity
  8
STR
  6
BYBLOCK
 62
     0
100
AcDbLine
 10
959.5538672725584
 20
1721.382749330132
 30
0.0
 11
972.9513267725584
 21
1671.382749330132
 31
0.0
  0
LINE
  5
BF1
330
1F
100
AcDbEntity
  8
STR
  6
BYBLOCK
 62
     0
100
AcDbLine
 10
959.5538672725584
 20
1721.382749330132
 30
0.0
 11
959.5538672725584
 21
1671.382749330132
 31
0.0
  0
LINE
  5
BF2
330
1F
100
AcDbEntity
  8
STR
  6
BYBLOCK
 62
     0
100
AcDbLine
 10
2012.681831218249
 20
2266.243103961377
 30
0.0
 11
1962.681831218249
 21
2279.640563461376
 31
0.0
  0
LINE
  5
BF3
330
1F
100
AcDbEntity
  8
STR
  6
BYBLOCK
 62
     0
100
AcDbLine
 10
1962.681831218249
 20
2279.640563461376
 30
0.0
 11
2012.681831218249
 21
2293.038022961376
 31
0.0
  0
LINE
  5
BF4
330
1F
100
AcDbEntity
  8
STR
  6
BYBLOCK
 62
     0
100
AcDbLine
 10
1962.681831218249
 20
2279.640563461376
 30
0.0
 11
2012.681831218249
 21
2279.640563461376
 31
0.0
  0
TEXT
  5
BF5
330
1F
100
AcDbEntity
  8
STR
100
AcDbText
 10
2167.681831218249
 20
2309.640563461376
 30
0.0
 40
60.0
  1
560
100
AcDbText
  0
TEXT
  5
BF6
330
1F
100
AcDbEntity
  8
STR
100
AcDbText
 10
2954.860304513619
 20
1373.882749330131
 30
0.0
 40
60.0
  1
1205
 50
90.0
100
AcDbText
  0
LINE
  5
BF7
330
1F
100
AcDbEntity
  8
STR
  6
BYBLOCK
 62
     0
100
AcDbLine
 10
3984.981387665226
 20
586.3789459253821
 30
0.0
 11
4034.981387665226
 21
572.9814864253821
 31
0.0
  0
LINE
  5
BF8
330
1F
100
AcDbEntity
  8
STR
  6
BYBLOCK
 62
     0
100
AcDbLine
 10
4034.981387665226
 20
572.9814864253821
 30
0.0
 11
3984.981387665226
 21
559.5840269253821
 31
0.0
  0
LINE
  5
BF9
330
1F
100
AcDbEntity
  8
STR
  6
BYBLOCK
 62
     0
100
AcDbLine
 10
4034.981387665226
 20
572.9814864253821
 30
0.0
 11
3984.981387665226
 21
572.9814864253821
 31
0.0
  0
LINE
  5
BFA
330
1F
100
AcDbEntity
  8
STR
  6
BYBLOCK
 62
     0
100
AcDbLine
 10
3424.981387665226
 20
559.5840269253821
 30
0.0
 11
3374.981387665227
 21
572.9814864253821
 31
0.0
  0
LINE
  5
BFB
330
1F
100
AcDbEntity
  8
STR
  6
BYBLOCK
 62
     0
100
AcDbLine
 10
3374.981387665227
 20
572.9814864253821
 30
0.0
 11
3424.981387665226
 21
586.3789459253821
 31
0.0
  0
LINE
  5
BFC
330
1F
100
AcDbEntity
  8
STR
  6
BYBLOCK
 62
     0
100
AcDbLine
 10
3374.981387665227
 20
572.9814864253821
 30
0.0
 11
3424.981387665226
 21
572.9814864253821
 31
0.0
  0
TEXT
  5
BFD
330
1F
100
AcDbEntity
  8
STR
100
AcDbText
 10
2639.919232216929
 20
913.8827493301322
 30
0.0
 40
60.0
  1
255
 50
90.0
100
AcDbText
  0
LINE
  5
BFE
330
1F
100
AcDbEntity
  8
STR
  6
BYBLOCK
 62
     0
100
AcDbLine
 10
2572.681831218249
 20
626.5661070452006
 30
0.0
 11
2522.681831218249
 21
639.9635665452006
 31
0.0
  0
LINE
  5
BFF
330
1F
100
AcDbEntity
  8
STR
  6
BYBLOCK
 62
     0
100
AcDbLine
 10
2522.681831218249
 20
639.9635665452006
 30
0.0
 11
2572.681831218249
 21
653.3610260452006
 31
0.0
  0
LINE
  5
C00
330
1F
100
AcDbEntity
  8
STR
  6
BYBLOCK
 62
     0
100
AcDbLine
 10
2522.681831218249
 20
639.9635665452006
 30
0.0
 11
2572.681831218249
 21
639.9635665452006
 31
0.0
  0
LINE
  5
C01
330
1F
100
AcDbEntity
  8
STR
  6
BYBLOCK
 62
     0
100
AcDbLine
 10
2683.316691716928
 20
916.3827493301313
 30
0.0
 11
2669.919232216928
 21
866.3827493301313
 31
0.0
  0
LINE
  5
C02
330
1F
100
AcDbEntity
  8
STR
  6
BYBLOCK
 62
     0
100
AcDbLine
 10
2669.919232216928
 20
866.3827493301313
 30
0.0
 11
2656.521772716928
 21
916.3827493301313
 31
0.0
  0
LINE
  5
C03
330
1F
100
AcDbEntity
  8
STR
  6
BYBLOCK
 62
     0
100
AcDbLine
 10
2669.919232216928
 20
866.3827493301313
 30
0.0
 11
2669.919232216928
 21
916.3827493301313
 31
0.0
  0
LINE
  5
C04
330
1F
100
AcDbEntity
  8
STR
  6
BYBLOCK
 62
     0
100
AcDbLine
 10
2840.059138602993
 20
916.3827493301313
 30
0.0
 11
2826.661679102993
 21
866.3827493301313
 31
0.0
  0
LINE
  5
C05
330
1F
100
AcDbEntity
  8
STR
  6
BYBLOCK
 62
     0
100
AcDbLine
 10
2826.661679102993
 20
866.3827493301313
 30
0.0
 11
2813.264219602993
 21
916.3827493301313
 31
0.0
  0
LINE
  5
C06
330
1F
100
AcDbEntity
  8
STR
  6
BYBLOCK
 62
     0
100
AcDbLine
 10
2826.661679102993
 20
866.3827493301313
 30
0.0
 11
2826.661679102993
 21
916.3827493301313
 31
0.0
  0
LINE
  5
C07
330
1F
100
AcDbEntity
  8
STR
  6
BYBLOCK
 62
     0
100
AcDbLine
 10
2998.257764013619
 20
916.3827493301313
 30
0.0
 11
2984.860304513619
 21
866.3827493301313
 31
0.0
  0
LINE
  5
C08
330
1F
100
AcDbEntity
  8
STR
  6
BYBLOCK
 62
     0
100
AcDbLine
 10
2984.860304513619
 20
866.3827493301313
 30
0.0
 11
2971.462845013618
 21
916.3827493301313
 31
0.0
  0
LINE
  5
C09
330
1F
100
AcDbEntity
  8
STR
  6
BYBLOCK
 62
     0
100
AcDbLine
 10
2984.860304513619
 20
866.3827493301313
 30
0.0
 11
2984.860304513619
 21
916.3827493301313
 31
0.0
  0
TEXT
  5
C0A
330
1F
100
AcDbEntity
  8
STR
100
AcDbText
 10
2639.919232216929
 20
1221.382749330132
 30
0.0
 40
60.0
  1
350
 50
90.0
100
AcDbText
  0
LINE
  5
C0B
330
1F
100
AcDbEntity
  8
STR
  6
BYBLOCK
 62
     0
100
AcDbLine
 10
2683.316691716929
 20
1171.382749330132
 30
0.0
 11
2669.919232216929
 21
1121.382749330132
 31
0.0
  0
LINE
  5
C0C
330
1F
100
AcDbEntity
  8
STR
  6
BYBLOCK
 62
     0
100
AcDbLine
 10
2669.919232216929
 20
1121.382749330132
 30
0.0
 11
2656.521772716929
 21
1171.382749330132
 31
0.0
  0
LINE
  5
C0D
330
1F
100
AcDbEntity
  8
STR
  6
BYBLOCK
 62
     0
100
AcDbLine
 10
2669.919232216929
 20
1121.382749330132
 30
0.0
 11
2669.919232216929
 21
1171.382749330132
 31
0.0
  0
LINE
  5
C0E
330
1F
100
AcDbEntity
  8
STR
  6
BYBLOCK
 62
     0
100
AcDbLine
 10
2656.521772716929
 20
1071.382749330132
 30
0.0
 11
2669.919232216929
 21
1121.382749330132
 31
0.0
  0
LINE
  5
C0F
330
1F
100
AcDbEntity
  8
STR
  6
BYBLOCK
 62
     0
100
AcDbLine
 10
2669.919232216929
 20
1121.382749330132
 30
0.0
 11
2683.316691716929
 21
1071.382749330132
 31
0.0
  0
LINE
  5
C10
330
1F
100
AcDbEntity
  8
STR
  6
BYBLOCK
 62
     0
100
AcDbLine
 10
2669.919232216929
 20
1121.382749330132
 30
0.0
 11
2669.919232216929
 21
1071.382749330132
 31
0.0
  0
TEXT
  5
C11
330
1F
100
AcDbEntity
  8
STR
100
AcDbText
 10
2796.661679102993
 20
1093.882749330131
 30
0.0
 40
60.0
  1
605
 50
90.0
100
AcDbText
  0
LINE
  5
C12
330
1F
100
AcDbEntity
  8
STR
  6
BYBLOCK
 62
     0
100
AcDbLine
 10
2656.521772716929
 20
1421.382749330131
 30
0.0
 11
2669.919232216929
 21
1471.382749330131
 31
0.0
  0
LINE
  5
C13
330
1F
100
AcDbEntity
  8
STR
  6
BYBLOCK
 62
     0
100
AcDbLine
 10
2669.919232216929
 20
1471.382749330131
 30
0.0
 11
2683.316691716929
 21
1421.382749330131
 31
0.0
  0
LINE
  5
C14
330
1F
100
AcDbEntity
  8
STR
  6
BYBLOCK
 62
     0
100
AcDbLine
 10
2669.919232216929
 20
1471.382749330131
 30
0.0
 11
2669.919232216929
 21
1421.382749330131
 31
0.0
  0
LINE
  5
C15
330
1F
100
AcDbEntity
  8
STR
  6
BYBLOCK
 62
     0
100
AcDbLine
 10
2813.264219602993
 20
1421.382749330131
 30
0.0
 11
2826.661679102993
 21
1471.382749330131
 31
0.0
  0
LINE
  5
C16
330
1F
100
AcDbEntity
  8
STR
  6
BYBLOCK
 62
     0
100
AcDbLine
 10
2826.661679102993
 20
1471.382749330131
 30
0.0
 11
2840.059138602994
 21
1421.382749330131
 31
0.0
  0
LINE
  5
C17
330
1F
100
AcDbEntity
  8
STR
  6
BYBLOCK
 62
     0
100
AcDbLine
 10
2826.661679102993
 20
1471.382749330131
 30
0.0
 11
2826.661679102993
 21
1421.382749330131
 31
0.0
  0
TEXT
  5
C18
330
1F
100
AcDbEntity
  8
STR
100
AcDbText
 10
3629.981387665226
 20
602.9814864253822
 30
0.0
 40
60.0
  1
660
100
AcDbText
  0
LINE
  5
C19
330
1F
100
AcDbEntity
  8
STR
  6
BYBLOCK
 62
     0
100
AcDbLine
 10
3979.981387665226
 20
1411.879793274187
 30
0.0
 11
4029.981387665226
 21
1398.482333774187
 31
0.0
  0
LINE
  5
C1A
330
1F
100
AcDbEntity
  8
STR
  6
BYBLOCK
 62
     0
100
AcDbLine
 10
4029.981387665226
 20
1398.482333774187
 30
0.0
 11
3979.981387665226
 21
1385.084874274187
 31
0.0
  0
LINE
  5
C1B
330
1F
100
AcDbEntity
  8
STR
  6
BYBLOCK
 62
     0
100
AcDbLine
 10
4029.981387665226
 20
1398.482333774187
 30
0.0
 11
3979.981387665226
 21
1398.482333774187
 31
0.0
  0
LINE
  5
C1C
330
1F
100
AcDbEntity
  8
STR
  6
BYBLOCK
 62
     0
100
AcDbLine
 10
4229.981387665225
 20
1385.084874274187
 30
0.0
 11
4179.981387665225
 21
1398.482333774187
 31
0.0
  0
LINE
  5
C1D
330
1F
100
AcDbEntity
  8
STR
  6
BYBLOCK
 62
     0
100
AcDbLine
 10
4179.981387665225
 20
1398.482333774187
 30
0.0
 11
4229.981387665225
 21
1411.879793274187
 31
0.0
  0
LINE
  5
C1E
330
1F
100
AcDbEntity
  8
STR
  6
BYBLOCK
 62
     0
100
AcDbLine
 10
4179.981387665225
 20
1398.482333774187
 30
0.0
 11
4229.981387665225
 21
1398.482333774187
 31
0.0
  0
TEXT
  5
C1F
330
1F
100
AcDbEntity
  8
STR
100
AcDbText
 10
4309.981387665226
 20
1428.482333774187
 30
0.0
 40
60.0
  1
150
100
AcDbText
  0
LINE
  5
C20
330
1F
100
AcDbEntity
  8
STR
  6
BYBLOCK
 62
     0
100
AcDbLine
 10
2971.462845013619
 20
2021.382749330131
 30
0.0
 11
2984.860304513619
 21
2071.382749330131
 31
0.0
  0
LINE
  5
C21
330
1F
100
AcDbEntity
  8
STR
  6
BYBLOCK
 62
     0
100
AcDbLine
 10
2984.860304513619
 20
2071.382749330131
 30
0.0
 11
2998.257764013619
 21
2021.382749330131
 31
0.0
  0
LINE
  5
C22
330
1F
100
AcDbEntity
  8
STR
  6
BYBLOCK
 62
     0
100
AcDbLine
 10
2984.860304513619
 20
2071.382749330131
 30
0.0
 11
2984.860304513619
 21
2021.382749330131
 31
0.0
  0
TEXT
  5
C23
330
1F
100
AcDbEntity
  8
STR
100
AcDbText
 10
3634.981387665227
 20
2309.640563461376
 30
0.0
 40
60.0
  1
600
100
AcDbText
  0
LINE
  5
C24
330
1F
100
AcDbEntity
  8
STR
  6
BYBLOCK
 62
     0
100
AcDbLine
 10
3454.981387665226
 20
2266.243103961377
 30
0.0
 11
3404.981387665226
 21
2279.640563461376
 31
0.0
  0
LINE
  5
C25
330
1F
100
AcDbEntity
  8
STR
  6
BYBLOCK
 62
     0
100
AcDbLine
 10
3404.981387665226
 20
2279.640563461376
 30
0.0
 11
3454.981387665226
 21
2293.038022961376
 31
0.0
  0
LINE
  5
C26
330
1F
100
AcDbEntity
  8
STR
  6
BYBLOCK
 62
     0
100
AcDbLine
 10
3404.981387665226
 20
2279.640563461376
 30
0.0
 11
3454.981387665226
 21
2279.640563461376
 31
0.0
  0
LINE
  5
C27
330
1F
100
AcDbEntity
  8
STR
  6
BYBLOCK
 62
     0
100
AcDbLine
 10
3954.981387665227
 20
2293.038022961376
 30
0.0
 11
4004.981387665227
 21
2279.640563461376
 31
0.0
  0
LINE
  5
C28
330
1F
100
AcDbEntity
  8
STR
  6
BYBLOCK
 62
     0
100
AcDbLine
 10
4004.981387665227
 20
2279.640563461376
 30
0.0
 11
3954.981387665227
 21
2266.243103961377
 31
0.0
  0
LINE
  5
C29
330
1F
100
AcDbEntity
  8
STR
  6
BYBLOCK
 62
     0
100
AcDbLine
 10
4004.981387665227
 20
2279.640563461376
 30
0.0
 11
3954.981387665227
 21
2279.640563461376
 31
0.0
  0
ENDSEC
  0
SECTION
  2
OBJECTS
  0
DICTIONARY
  5
C
330
0
100
AcDbDictionary
  3
ACAD_COLOR
350
6B
  3
ACAD_GROUP
350
D
  3
ACAD_LAYOUT
350
1A
  3
ACAD_MATERIAL
350
6A
  3
ACAD_MLINESTYLE
350
17
  3
ACAD_PLOTSETTINGS
350
19
  3
ACAD_PLOTSTYLENAME
350
E
  3
ACDBHEADERROUNDTRIPXREC
350
C2B
  3
ACDBVARIABLEDICTIONARY
350
5E
  0
DICTIONARY
  5
924
330
1F
100
AcDbDictionary
280
     1
  3
ACAD_LAYOUTSELFREF
360
C4C
  0
DICTIONARY
  5
926
330
90B
100
AcDbDictionary
280
     1
  3
ACAD_LAYOUTSELFREF
360
C4D
  0
DICTIONARY
  5
6B
102
{ACAD_REACTORS
330
C
102
}
330
C
100
AcDbDictionary
  0
DICTIONARY
  5
D
102
{ACAD_REACTORS
330
C
102
}
330
C
100
AcDbDictionary
  0
DICTIONARY
  5
1A
102
{ACAD_REACTORS
330
C
102
}
330
C
100
AcDbDictionary
  0
DICTIONARY
  5
6A
102
{ACAD_REACTORS
330
C
102
}
330
C
100
AcDbDictionary
  0
DICTIONARY
  5
17
102
{ACAD_REACTORS
330
C
102
}
330
C
100
AcDbDictionary
  3
STANDARD
350
18
  0
DICTIONARY
  5
19
102
{ACAD_REACTORS
330
C
102
}
330
C
100
AcDbDictionary
  0
ACDBDICTIONARYWDFLT
  5
E
102
{ACAD_REACTORS
330
C
102
}
330
C
100
AcDbDictionary
281
     1
  3
Normal
350
F
100
AcDbDictionaryWithDefault
340
F
  0
DICTIONARY
  5
C2B
102
{ACAD_REACTORS
330
C
102
}
330
C
100
AcDbDictionary
  3
CEPSNTYPE
350
C35
  3
DIMSTYLEDATA
350
C39
  3
FINGERPRINTGUID
350
C36
  3
HYPERLINKBASE
350
C2E
  3
INSUNITS
350
C34
  3
LAYOUTDICT
350
C30
  3
LWETCUNION
350
C33
  3
PLOTSETDICT
350
C31
  3
PLOTSTYLNAMDICT
350
C32
  3
PSVPSCALE
350
C38
  3
PUCSBASE
350
C3C
  3
PUCSORGBACK
350
C42
  3
PUCSORGBOTTOM
350
C3E
  3
PUCSORGFRONT
350
C41
  3
PUCSORGLEFT
350
C3F
  3
PUCSORGRIGHT
350
C40
  3
PUCSORGTOP
350
C3D
  3
PUCSORTHOREF
350
C3A
  3
PUCSORTHOVIEW
350
C3B
  3
STYLESHEET
350
C2F
  3
TSTACKALIGN
350
C2C
  3
TSTACKSIZE
350
C2D
  3
UCSBASE
350
C45
  3
UCSORGBACK
350
C4B
  3
UCSORGBOTTOM
350
C47
  3
UCSORGFRONT
350
C4A
  3
UCSORGLEFT
350
C48
  3
UCSORGRIGHT
350
C49
  3
UCSORGTOP
350
C46
  3
UCSORTHOREF
350
C43
  3
UCSORTHOVIEW
350
C44
  3
VERSIONGUID
350
C37
  0
DICTIONARY
  5
5E
102
{ACAD_REACTORS
330
C
102
}
330
C
100
AcDbDictionary
  3
DIMASSOC
350
5F
  3
HIDETEXT
350
63
  3
PROJECTNAME
350
91E
  0
XRECORD
  5
C4C
102
{ACAD_REACTORS
330
924
102
}
330
924
100
AcDbXrecord
340
1F
  0
XRECORD
  5
C4D
102
{ACAD_REACTORS
330
926
102
}
330
926
100
AcDbXrecord
340
90B
  0
MLINESTYLE
  5
18
102
{ACAD_REACTORS
330
17
102
}
330
17
100
AcDbMlineStyle
  2
STANDARD
 70
     0
  3

 62
   256
 51
90.0
 52
90.0
 71
     2
 49
0.5
 62
   256
  6
BYLAYER
 49
-0.5
 62
   256
  6
BYLAYER
  0
ACDBPLACEHOLDER
  5
F
102
{ACAD_REACTORS
330
E
102
}
330
E
100
AcDbPlaceHolder
280
     0
  0
XRECORD
  5
C35
102
{ACAD_REACTORS
330
C2B
102
}
330
C2B
100
AcDbXrecord
 90
        0
  0
XRECORD
  5
C39
102
{ACAD_REACTORS
330
C2B
102
}
330
C2B
100
AcDbXrecord
1000
DSTYLE
1002
{
1070
   278
 70
    44
1070
   289
 70
     2
1070
   341
340
ED
1070
   342
340
9F
1002
}
  0
XRECORD
  5
C36
102
{ACAD_REACTORS
330
C2B
102
}
330
C2B
100
AcDbXrecord
  1
{FDEAD578-A652-11D2-9A35-0060089B3A3F}
  0
XRECORD
  5
C2E
102
{ACAD_REACTORS
330
C2B
102
}
330
C2B
100
AcDbXrecord
  1

  0
XRECORD
  5
C34
102
{ACAD_REACTORS
330
C2B
102
}
330
C2B
100
AcDbXrecord
 90
        4
  0
XRECORD
  5
C30
102
{ACAD_REACTORS
330
C2B
102
}
330
C2B
100
AcDbXrecord
340
1A
  0
XRECORD
  5
C33
102
{ACAD_REACTORS
330
C2B
102
}
330
C2B
100
AcDbXrecord
 90
    10781
  0
XRECORD
  5
C31
102
{ACAD_REACTORS
330
C2B
102
}
330
C2B
100
AcDbXrecord
340
19
  0
XRECORD
  5
C32
102
{ACAD_REACTORS
330
C2B
102
}
330
C2B
100
AcDbXrecord
340
E
  0
XRECORD
  5
C38
102
{ACAD_REACTORS
330
C2B
102
}
330
C2B
100
AcDbXrecord
 40
0.0
  0
XRECORD
  5
C3C
102
{ACAD_REACTORS
330
C2B
102
}
330
C2B
100
AcDbXrecord
340
0
  0
XRECORD
  5
C42
102
{ACAD_REACTORS
330
C2B
102
}
330
C2B
100
AcDbXrecord
 10
0.0
 20
0.0
 30
0.0
  0
XRECORD
  5
C3E
102
{ACAD_REACTORS
330
C2B
102
}
330
C2B
100
AcDbXrecord
 10
0.0
 20
0.0
 30
0.0
  0
XRECORD
  5
C41
102
{ACAD_REACTORS
330
C2B
102
}
330
C2B
100
AcDbXrecord
 10
0.0
 20
0.0
 30
0.0
  0
XRECORD
  5
C3F
102
{ACAD_REACTORS
330
C2B
102
}
330
C2B
100
AcDbXrecord
 10
0.0
 20
0.0
 30
0.0
  0
XRECORD
  5
C40
102
{ACAD_REACTORS
330
C2B
102
}
330
C2B
100
AcDbXrecord
 10
0.0
 20
0.0
 30
0.0
  0
XRECORD
  5
C3D
102
{ACAD_REACTORS
330
C2B
102
}
330
C2B
100
AcDbXrecord
 10
0.0
 20
0.0
 30
0.0
  0
XRECORD
  5
C3A
102
{ACAD_REACTORS
330
C2B
102
}
330
C2B
100
AcDbXrecord
340
0
  0
XRECORD
  5
C3B
102
{ACAD_REACTORS
330
C2B
102
}
330
C2B
100
AcDbXrecord
 70
     0
  0
XRECORD
  5
C2F
102
{ACAD_REACTORS
330
C2B
102
}
330
C2B
100
AcDbXrecord
  1

  0
XRECORD
  5
C2C
102
{ACAD_REACTORS
330
C2B
102
}
330
C2B
100
AcDbXrecord
 90
        1
  0
XRECORD
  5
C2D
102
{ACAD_REACTORS
330
C2B
102
}
330
C2B
100
AcDbXrecord
 90
       70
  0
XRECORD
  5
C45
102
{ACAD_REACTORS
330
C2B
102
}
330
C2B
100
AcDbXrecord
340
0
  0
XRECORD
  5
C4B
102
{ACAD_REACTORS
330
C2B
102
}
330
C2B
100
AcDbXrecord
 10
0.0
 20
0.0
 30
0.0
  0
XRECORD
  5
C47
102
{ACAD_REACTORS
330
C2B
102
}
330
C2B
100
AcDbXrecord
 10
0.0
 20
0.0
 30
0.0
  0
XRECORD
  5
C4A
102
{ACAD_REACTORS
330
C2B
102
}
330
C2B
100
AcDbXrecord
 10
0.0
 20
0.0
 30
0.0
  0
XRECORD
  5
C48
102
{ACAD_REACTORS
330
C2B
102
}
330
C2B
100
AcDbXrecord
 10
0.0
 20
0.0
 30
0.0
  0
XRECORD
  5
C49
102
{ACAD_REACTORS
330
C2B
102
}
330
C2B
100
AcDbXrecord
 10
0.0
 20
0.0
 30
0.0
  0
XRECORD
  5
C46
102
{ACAD_REACTORS
330
C2B
102
}
330
C2B
100
AcDbXrecord
 10
0.0
 20
0.0
 30
0.0
  0
XRECORD
  5
C43
102
{ACAD_REACTORS
330
C2B
102
}
330
C2B
100
AcDbXrecord
340
0
  0
XRECORD
  5
C44
102
{ACAD_REACTORS
330
C2B
102
}
330
C2B
100
AcDbXrecord
 70
     0
  0
XRECORD
  5
C37
102
{ACAD_REACTORS
330
C2B
102
}
330
C2B
100
AcDbXrecord
  1
{29D0D703-DFAA-4BCD-8829-896D201BE164}
  0
DICTIONARYVAR
  5
5F
102
{ACAD_REACTORS
330
5E
102
}
330
5E
100
DictionaryVariables
280
     0
  1
2
  0
DICTIONARYVAR
  5
63
102
{ACAD_REACTORS
330
5E
102
}
330
5E
100
DictionaryVariables
280
     0
  1
1
  0
DICTIONARYVAR
  5
91E
102
{ACAD_REACTORS
330
5E
102
}
330
5E
100
DictionaryVariables
280
     0
  1

  0
ENDSEC
  0
EOF
