  0
SECTION
  2
HEADER
  9
$ACADVER
  1
AC1009
  9
$INSBASE
 10
0
 20
0
 30
0
  9
$EXTMIN
 10
0
 20
0
  9
$EXTMAX
 10
2970
 20
2100
  9
$LIMMIN
 10
0
 20
0
  9
$LIMMAX
 10
2970
 20
2100
  9
$LTSCALE
 40
10
  0
ENDSEC
  0
SECTION
  2
TABLES
  0
TABLE
  2
LTYPE
 70
     9
  0
LTYPE
  2
CONTINUOUS
 70
    64
  3
実線
 72
    65
 73
     0
 40
0.0
  0
LTYPE
  2
DASHED1
 70
    64
  3
--  --  --  --  --  --  --  --  
 72
    65
 73
     2
 40
2.5
 49
1.25
 49
-1.25
  0
LTYPE
  2
DASHED2
 70
    64
  3
----    ----    ----    ----    
 72
    65
 73
     2
 40
5.0
 49
2.5
 49
-2.5
  0
LTYPE
  2
DASHED3
 70
    64
  3
------  ------  ------  ------  
 72
    65
 73
     2
 40
5.0
 49
3.75
 49
-1.25
  0
LTYPE
  2
CENTER1
 70
    64
  3
----- - ----- - ----- - ----- - 
 72
    65
 73
     4
 40
10.0
 49
6.25
 49
-1.25
 49
1.25
 49
-1.25
  0
LTYPE
  2
CENTER2
 70
    64
  3
----------  --  ----------  --  
 72
    65
 73
     4
 40
20.0
 49
12.5
 49
-2.5
 49
2.5
 49
-2.5
  0
LTYPE
  2
PHANTOM1
 70
    64
  3
--- - - --- - - --- - - --- - - 
 72
    65
 73
     6
 40
10.0
 49
3.25
 49
-1.25
 49
1.25
 49
-1.25
 49
1.25
 49
-1.25
  0
LTYPE
  2
PHANTOM2
 70
    64
  3
--------  -  -  --------  -  -  
 72
    65
 73
     6
 40
20.0
 49
10.0
 49
-2.5
 49
1.25
 49
-2.5
 49
1.25
 49
-2.5
  0
LTYPE
  2
DOT
 70
    64
  3
-   -   -   -   -   -   -   -   
 72
    65
 73
     2
 40
2.5
 49
0.625
 49
-1.875
  0
LTYPE
  2
DUMMY
 70
    64
  3
ダミー
 72
    65
 73
     0
 40
0.0
  0
LTYPE
  2
RAND1
 70
    64
  3
----- - ----- - ----- - ----- - 
 72
    65
 73
     4
 40
10.0
 49
6.25
 49
-1.25
 49
1.25
 49
-1.25
  0
LTYPE
  2
RAND2
 70
    64
  3
----------  --  ----------  --  
 72
    65
 73
     4
 40
20.0
 49
12.5
 49
-2.5
 49
2.5
 49
-2.5
  0
LTYPE
  2
RAND3
 70
    64
  3
--- - - --- - - --- - - --- - - 
 72
    65
 73
     6
 40
10.0
 49
3.25
 49
-1.25
 49
1.25
 49
-1.25
 49
1.25
 49
-1.25
  0
LTYPE
  2
RAND4
 70
    64
  3
--------  -  -  --------  -  -  
 72
    65
 73
     6
 40
20.0
 49
10.0
 49
-2.5
 49
1.25
 49
-2.5
 49
1.25
 49
-2.5
  0
LTYPE
  2
RAND5
 70
    64
  3
----- - ----- - ----- - ----- - 
 72
    65
 73
     4
 40
10.0
 49
6.25
 49
-1.25
 49
1.25
 49
-1.25
  0
LTYPE
  2
LONG1
 70
    64
  3
----------  --  ----------  --  
 72
    65
 73
     4
 40
20.0
 49
12.5
 49
-2.5
 49
2.5
 49
-2.5
  0
LTYPE
  2
LONG2
 70
    64
  3
--- - - --- - - --- - - --- - - 
 72
    65
 73
     6
 40
10.0
 49
3.25
 49
-1.25
 49
1.25
 49
-1.25
 49
1.25
 49
-1.25
  0
LTYPE
  2
LONG3
 70
    64
  3
--------  -  -  --------  -  -  
 72
    65
 73
     6
 40
20.0
 49
10.0
 49
-2.5
 49
1.25
 49
-2.5
 49
1.25
 49
-2.5
  0
LTYPE
  2
LONG4
 70
    64
  3
----- - ----- - ----- - ----- - 
 72
    65
 73
     4
 40
10.0
 49
6.25
 49
-1.25
 49
1.25
 49
-1.25
  0
LTYPE
  2
LONG5
 70
    64
  3
----------  --  ----------  --  
 72
    65
 73
     4
 40
20.0
 49
12.5
 49
-2.5
 49
2.5
 49
-2.5
  0
ENDTAB
  0
TABLE
  2
STYLE
  5
3
100
AcDbSymbolTable
 70
     1
  0
STYLE
  5
10
100
AcDbSymbolTableRecord
100
AcDbTextStyleTableRecord
  2
STANDARD
 70
     0
 40
0.0
 41
1.0
 50
0.0
 71
     0
 42
0.2
  3
txt
  4
bigfont.shx
  0
STYLE
  5
26
100
AcDbSymbolTableRecord
100
AcDbTextStyleTableRecord
  2
TATEGAKI
 70
    68
 40
0.0
 41
1.0
 50
0.0
 71
     0
 42
1.0
  3
txt
  4
bigfont.shx
  0
ENDTAB
  0
TABLE
  2
LAYER
 70
    3
  0
LAYER
  2
_0-1_BMK
 70
   64
 62
    7
  6
CONTINUOUS
  0
LAYER
  2
_0-3_STR
 70
   64
 62
    7
  6
CONTINUOUS
  0
LAYER
  2
ADD_LINE
 70
   64
 62
    7
  6
CONTINUOUS
  0
ENDTAB
  0
ENDSEC
  0
SECTION
  2
BLOCKS
  0
BLOCK
  2
-000-_MODEL_SPACE
 70
   64
 10
0
 20
0
 30
0
  0
ENDBLK
  0
BLOCK
  2
-001-_PAPER_SPACE
 70
   64
 10
0
 20
0
 30
0
  0
ENDBLK
  0
BLOCK
  2
-002-_OPEN30
 70
   64
 10
0
 20
0
 30
0
  0
LINE
  8
_0-0_0
  6
CONTINUOUS
 62
    7
 10
-1
 20
0.2679491
 11
0
 21
0
  0
LINE
  8
_0-0_0
  6
CONTINUOUS
 62
    7
 10
0
 20
0
 11
-1
 21
-0.2679491
  0
LINE
  8
_0-0_0
  6
CONTINUOUS
 62
    7
 10
0
 20
0
 11
-1
 21
0
  0
ENDBLK
  0
BLOCK
  2
-003-_NONE
 70
   64
 10
0
 20
0
 30
0
  0
ENDBLK
  0
BLOCK
  2
-004-_D3
 70
   64
 10
0
 20
0
 30
0
  0
LINE
  8
_0-3_STR
  6
CONTINUOUS
 62
    7
 10
732.12818
 20
1705.2784
 11
732.12818
 21
1416.6074
  0
LINE
  8
_0-3_STR
  6
CONTINUOUS
 62
    7
 10
2482.1281
 20
1705.2784
 11
2482.1281
 21
1416.6074
  0
LINE
  8
_0-3_STR
  6
CONTINUOUS
 62
    7
 10
782.12818
 20
1417.8574
 11
2432.1281
 21
1417.8574
  0
INSERT
  2
-002-_OPEN30
  8
_0-3_STR
 10
732.12818
 20
1417.8574
 41
50
 42
50
 50
180
  0
INSERT
  2
-002-_OPEN30
  8
_0-3_STR
 10
2482.1281
 20
1417.8574
 41
50
 42
50
 50
0
  0
TEXT
  8
_0-3_STR
 62
    7
 10
1539.4781
 20
1447.8574
 40
60
 41
1
 50
0
  1
1750
  0
POINT
  8
_0-2_DEFPOINTS
 62
    7
 10
732.12818
 20
1705.9034
  0
POINT
  8
_0-2_DEFPOINTS
 62
    7
 10
2482.1281
 20
1705.9034
  0
POINT
  8
_0-2_DEFPOINTS
 62
    7
 10
2482.1281
 20
1417.8574
  0
ENDBLK
  0
BLOCK
  2
-005-_D4
 70
   64
 10
0
 20
0
 30
0
  0
LINE
  8
_0-3_STR
  6
CONTINUOUS
 62
    7
 10
732.12818
 20
1705.2784
 11
732.12818
 21
1552.467
  0
LINE
  8
_0-3_STR
  6
CONTINUOUS
 62
    7
 10
2032.1281
 20
1705.2784
 11
2032.1281
 21
1552.467
  0
LINE
  8
_0-3_STR
  6
CONTINUOUS
 62
    7
 10
782.12818
 20
1553.717
 11
1982.1281
 21
1553.717
  0
INSERT
  2
-002-_OPEN30
  8
_0-3_STR
 10
732.12818
 20
1553.717
 41
50
 42
50
 50
180
  0
INSERT
  2
-002-_OPEN30
  8
_0-3_STR
 10
2032.1281
 20
1553.717
 41
50
 42
50
 50
0
  0
TEXT
  8
_0-3_STR
 62
    7
 10
1314.4781
 20
1583.717
 40
60
 41
1
 50
0
  1
1300
  0
POINT
  8
_0-2_DEFPOINTS
 62
    7
 10
732.12818
 20
1705.9034
  0
POINT
  8
_0-2_DEFPOINTS
 62
    7
 10
2032.1281
 20
1705.9034
  0
POINT
  8
_0-2_DEFPOINTS
 62
    7
 10
2032.1281
 20
1553.717
  0
ENDBLK
  0
BLOCK
  2
-006-_D5
 70
   64
 10
0
 20
0
 30
0
  0
LINE
  8
_0-3_STR
  6
CONTINUOUS
 62
    7
 10
652.12818
 20
414.27848
 11
652.12818
 21
277.2501
  0
LINE
  8
_0-3_STR
  6
CONTINUOUS
 62
    7
 10
2032.1281
 20
414.27848
 11
2032.1281
 21
277.2501
  0
LINE
  8
_0-3_STR
  6
CONTINUOUS
 62
    7
 10
702.12818
 20
278.5001
 11
1982.1281
 21
278.5001
  0
INSERT
  2
-002-_OPEN30
  8
_0-3_STR
 10
652.12818
 20
278.5001
 41
50
 42
50
 50
180
  0
INSERT
  2
-002-_OPEN30
  8
_0-3_STR
 10
2032.1281
 20
278.5001
 41
50
 42
50
 50
0
  0
TEXT
  8
_0-3_STR
 62
    7
 10
1274.4781
 20
308.5001
 40
60
 41
1
 50
0
  1
1380
  0
POINT
  8
_0-2_DEFPOINTS
 62
    7
 10
652.12818
 20
414.90348
  0
POINT
  8
_0-2_DEFPOINTS
 62
    7
 10
2032.1281
 20
414.90348
  0
POINT
  8
_0-2_DEFPOINTS
 62
    7
 10
2032.1281
 20
278.5001
  0
ENDBLK
  0
BLOCK
  2
-007-_D6
 70
   64
 10
0
 20
0
 30
0
  0
LINE
  8
_0-3_STR
  6
CONTINUOUS
 62
    7
 10
652.12818
 20
414.27848
 11
652.12818
 21
130.31152
  0
LINE
  8
_0-3_STR
  6
CONTINUOUS
 62
    7
 10
2482.1281
 20
414.27848
 11
2482.1281
 21
130.31152
  0
LINE
  8
_0-3_STR
  6
CONTINUOUS
 62
    7
 10
702.12818
 20
131.56152
 11
2432.1281
 21
131.56152
  0
INSERT
  2
-002-_OPEN30
  8
_0-3_STR
 10
652.12818
 20
131.56152
 41
50
 42
50
 50
180
  0
INSERT
  2
-002-_OPEN30
  8
_0-3_STR
 10
2482.1281
 20
131.56152
 41
50
 42
50
 50
0
  0
TEXT
  8
_0-3_STR
 62
    7
 10
1499.4781
 20
161.56152
 40
60
 41
1
 50
0
  1
1830
  0
POINT
  8
_0-2_DEFPOINTS
 62
    7
 10
652.12818
 20
414.90348
  0
POINT
  8
_0-2_DEFPOINTS
 62
    7
 10
2482.1281
 20
414.90348
  0
POINT
  8
_0-2_DEFPOINTS
 62
    7
 10
2482.1281
 20
131.56152
  0
ENDBLK
  0
BLOCK
  2
-008-_D7
 70
   64
 10
0
 20
0
 30
0
  0
LINE
  8
_0-3_STR
  6
CONTINUOUS
 62
    7
 10
3255.3043
 20
1315.4019
 11
2852.0812
 21
1315.4019
  0
LINE
  8
_0-3_STR
  6
CONTINUOUS
 62
    7
 10
3089.0336
 20
414.4019
 11
2852.0812
 21
414.4019
  0
LINE
  8
_0-3_STR
  6
CONTINUOUS
 62
    7
 10
2853.3312
 20
1265.4019
 11
2853.3312
 21
464.4019
  0
INSERT
  2
-002-_OPEN30
  8
_0-3_STR
 10
2853.3312
 20
1315.4019
 41
50
 42
50
 50
90
  0
INSERT
  2
-002-_OPEN30
  8
_0-3_STR
 10
2853.3312
 20
414.4019
 41
50
 42
50
 50
270
  0
TEXT
  8
_0-3_STR
 62
    7
 10
2823.3312
 20
814.8019
 40
60
 41
1
 50
90
  1
901
  0
POINT
  8
_0-2_DEFPOINTS
 62
    7
 10
3255.9293
 20
1315.4019
  0
POINT
  8
_0-2_DEFPOINTS
 62
    7
 10
3089.6586
 20
414.4019
  0
POINT
  8
_0-2_DEFPOINTS
 62
    7
 10
2853.3312
 20
414.4019
  0
ENDBLK
  0
BLOCK
  2
-009-_D8
 70
   64
 10
0
 20
0
 30
0
  0
LINE
  8
_0-3_STR
  6
CONTINUOUS
 62
    7
 10
3146.9526
 20
850.4019
 11
2999.0727
 21
850.4019
  0
LINE
  8
_0-3_STR
  6
CONTINUOUS
 62
    7
 10
3146.9526
 20
414.4019
 11
2999.0727
 21
414.4019
  0
LINE
  8
_0-3_STR
  6
CONTINUOUS
 62
    7
 10
3000.3227
 20
800.4019
 11
3000.3227
 21
464.4019
  0
INSERT
  2
-002-_OPEN30
  8
_0-3_STR
 10
3000.3227
 20
850.4019
 41
50
 42
50
 50
90
  0
INSERT
  2
-002-_OPEN30
  8
_0-3_STR
 10
3000.3227
 20
414.4019
 41
50
 42
50
 50
270
  0
TEXT
  8
_0-3_STR
 62
    7
 10
2970.3227
 20
582.3019
 40
60
 41
1
 50
90
  1
436
  0
POINT
  8
_0-2_DEFPOINTS
 62
    7
 10
3147.5776
 20
850.4019
  0
POINT
  8
_0-2_DEFPOINTS
 62
    7
 10
3147.5776
 20
414.4019
  0
POINT
  8
_0-2_DEFPOINTS
 62
    7
 10
3000.3227
 20
414.4019
  0
ENDBLK
  0
BLOCK
  2
-010-_D9
 70
   64
 10
0
 20
0
 30
0
  0
LINE
  8
_0-3_STR
  6
CONTINUOUS
 62
    7
 10
3195.5088
 20
382.50462
 11
3195.5088
 21
198.46114
  0
LINE
  8
_0-3_STR
  6
CONTINUOUS
 62
    7
 10
3585.5088
 20
382.50462
 11
3585.5088
 21
198.46114
  0
LINE
  8
_0-3_STR
  6
CONTINUOUS
 62
    7
 10
3245.5088
 20
199.71114
 11
3535.5088
 21
199.71114
  0
INSERT
  2
-002-_OPEN30
  8
_0-3_STR
 10
3195.5088
 20
199.71114
 41
50
 42
50
 50
180
  0
INSERT
  2
-002-_OPEN30
  8
_0-3_STR
 10
3585.5088
 20
199.71114
 41
50
 42
50
 50
0
  0
TEXT
  8
_0-3_STR
 62
    7
 10
3340.4088
 20
229.71114
 40
60
 41
1
 50
0
  1
390
  0
POINT
  8
_0-2_DEFPOINTS
 62
    7
 10
3195.5088
 20
383.12962
  0
POINT
  8
_0-2_DEFPOINTS
 62
    7
 10
3585.5088
 20
383.12962
  0
POINT
  8
_0-2_DEFPOINTS
 62
    7
 10
3585.5088
 20
199.71114
  0
ENDBLK
  0
BLOCK
  2
-011-_D10
 70
   64
 10
0
 20
0
 30
0
  0
LINE
  8
_0-3_STR
  6
CONTINUOUS
 62
    7
 10
3175.5088
 20
479.30882
 11
3175.5088
 21
55.802321
  0
LINE
  8
_0-3_STR
  6
CONTINUOUS
 62
    7
 10
3605.5088
 20
479.30882
 11
3605.5088
 21
55.802321
  0
LINE
  8
_0-3_STR
  6
CONTINUOUS
 62
    7
 10
3225.5088
 20
57.052321
 11
3555.5088
 21
57.052321
  0
INSERT
  2
-002-_OPEN30
  8
_0-3_STR
 10
3175.5088
 20
57.052321
 41
50
 42
50
 50
180
  0
INSERT
  2
-002-_OPEN30
  8
_0-3_STR
 10
3605.5088
 20
57.052321
 41
50
 42
50
 50
0
  0
TEXT
  8
_0-3_STR
 62
    7
 10
3340.4088
 20
87.052321
 40
60
 41
1
 50
0
  1
430
  0
POINT
  8
_0-2_DEFPOINTS
 62
    7
 10
3175.5088
 20
479.93382
  0
POINT
  8
_0-2_DEFPOINTS
 62
    7
 10
3605.5088
 20
479.93382
  0
POINT
  8
_0-2_DEFPOINTS
 62
    7
 10
3605.5088
 20
57.052321
  0
ENDBLK
  0
BLOCK
  2
-012-_D11
 70
   64
 10
0
 20
0
 30
0
  0
LINE
  8
_0-3_STR
  6
CONTINUOUS
 62
    7
 10
2222.0288
 20
1060.4019
 11
2220.7788
 21
1060.4019
  0
LINE
  8
_0-3_STR
  6
CONTINUOUS
 62
    7
 10
2222.0288
 20
630.4019
 11
2220.7788
 21
630.4019
  0
LINE
  8
_0-3_STR
  6
CONTINUOUS
 62
    7
 10
2222.0288
 20
1010.4019
 11
2222.0288
 21
680.4019
  0
INSERT
  2
-002-_OPEN30
  8
_0-3_STR
 10
2222.0288
 20
1060.4019
 41
50
 42
50
 50
90
  0
INSERT
  2
-002-_OPEN30
  8
_0-3_STR
 10
2222.0288
 20
630.4019
 41
50
 42
50
 50
270
  0
TEXT
  8
_0-3_STR
 62
    7
 10
2192.0288
 20
815.4019
 40
60
 41
1
 50
90
  1
　
  0
POINT
  8
_0-2_DEFPOINTS
 62
    7
 10
2222.6538
 20
1060.4019
  0
POINT
  8
_0-2_DEFPOINTS
 62
    7
 10
2222.6538
 20
630.4019
  0
POINT
  8
_0-2_DEFPOINTS
 62
    7
 10
2222.0288
 20
630.4019
  0
ENDBLK
  0
ENDSEC
  0
SECTION
  2
ENTITIES
  0
LINE
  8
_0-3_STR
  6
CONTINUOUS
 62
    7
 10
-15.408338
 20
81.917377
 11
1734.5916
 21
81.917377
  0
LINE
  8
_0-1_BMK
  6
CENTER2
 62
    1
 10
-150.96876
 20
487.91737
 11
1852.0657
 21
487.91737
  0
LINE
  8
_0-3_STR
  6
CONTINUOUS
 62
    7
 10
559.59166
 20
267.91737
 11
1774.5916
 21
267.91737
  0
LINE
  8
_0-3_STR
  6
CONTINUOUS
 62
    7
 10
559.59166
 20
697.91737
 11
1774.5916
 21
697.91737
  0
LINE
  8
_0-3_STR
  6
CONTINUOUS
 62
    7
 10
-15.408338
 20
221.91737
 11
1734.5916
 21
221.91737
  0
LINE
  8
_0-3_STR
  6
CONTINUOUS
 62
    7
 10
474.59166
 20
191.91737
 11
1734.5916
 21
191.91737
  0
LINE
  8
_0-3_STR
  6
CONTINUOUS
 62
    7
 10
4.591661
 20
111.91737
 11
1734.5916
 21
111.91737
  0
LINE
  8
_0-3_STR
  6
CONTINUOUS
 62
    7
 10
1734.5916
 20
221.91737
 11
1734.5916
 21
81.917377
  0
LINE
  8
_0-3_STR
  6
CONTINUOUS
 62
    7
 10
-95.408338
 20
208.91737
 11
-95.408338
 21
94.917377
  0
LINE
  8
_0-3_STR
  6
CONTINUOUS
 62
    7
 10
-15.408338
 20
221.91737
 11
-15.408338
 21
81.917377
  0
LINE
  8
_0-3_STR
  6
CONTINUOUS
 62
    7
 10
4.591661
 20
221.91737
 11
4.591661
 21
81.917377
  0
LINE
  8
_0-3_STR
  6
CONTINUOUS
 62
    7
 10
4.591661
 20
151.91737
 11
474.59166
 21
151.91737
  0
LINE
  8
_0-3_STR
  6
CONTINUOUS
 62
    7
 10
479.59166
 20
281.91737
 11
4.591661
 21
281.91737
  0
LINE
  8
_0-3_STR
  6
CONTINUOUS
 62
    7
 10
4.591661
 20
396.91737
 11
4.591661
 21
221.91737
  0
LINE
  8
_0-3_STR
  6
CONTINUOUS
 62
    7
 10
1284.5916
 20
267.91737
 11
1284.5916
 21
111.91737
  0
LINE
  8
_0-3_STR
  6
CONTINUOUS
 62
    7
 10
559.59166
 20
697.91737
 11
559.59166
 21
267.91737
  0
LINE
  8
_0-3_STR
  6
CONTINUOUS
 62
    7
 10
474.59166
 20
151.91737
 11
474.59166
 21
221.91737
  0
LINE
  8
_0-3_STR
  6
CONTINUOUS
 62
    7
 10
479.59166
 20
221.91737
 11
479.59166
 21
281.91737
  0
LINE
  8
_0-3_STR
  6
CONTINUOUS
 62
    7
 10
449.59166
 20
281.91737
 11
449.59166
 21
331.91737
  0
LINE
  8
_0-3_STR
  6
CONTINUOUS
 62
    7
 10
64.591661
 20
396.91737
 11
64.591661
 21
281.91737
  0
LINE
  8
_0-3_STR
  6
CONTINUOUS
 62
    7
 10
64.591661
 20
396.91737
 11
4.591661
 21
396.91737
  0
LINE
  8
_0-3_STR
  6
CONTINUOUS
 62
    7
 10
237.09166
 20
281.91737
 11
237.09166
 21
331.91737
  0
LINE
  8
_0-3_STR
  6
CONTINUOUS
 62
    7
 10
237.09166
 20
331.91737
 11
287.09166
 21
331.91737
  0
LINE
  8
_0-3_STR
  6
CONTINUOUS
 62
    7
 10
287.09166
 20
331.91737
 11
287.09166
 21
676.91737
  0
LINE
  8
_0-3_STR
  6
CONTINUOUS
 62
    7
 10
287.09166
 20
676.91737
 11
399.59166
 21
676.91737
  0
LINE
  8
_0-3_STR
  6
CONTINUOUS
 62
    7
 10
399.59166
 20
331.91737
 11
449.59166
 21
331.91737
  0
LINE
  8
_0-3_STR
  6
CONTINUOUS
 62
    7
 10
399.59166
 20
331.91737
 11
399.59166
 21
676.91737
  0
LINE
  8
_0-3_STR
  6
CONTINUOUS
 62
    7
 10
287.09166
 20
666.91737
 11
399.59166
 21
666.91737
  0
LINE
  8
_0-3_STR
  6
CONTINUOUS
 62
    7
 10
87.091661
 20
331.91737
 11
87.091661
 21
416.91737
  0
LINE
  8
_0-3_STR
  6
CONTINUOUS
 62
    7
 10
87.091661
 20
331.91737
 11
287.09166
 21
331.91737
  0
LINE
  8
_0-3_STR
  6
CONTINUOUS
 62
    7
 10
287.09166
 20
416.91737
 11
87.091661
 21
416.91737
  0
LINE
  8
_0-3_STR
  6
CONTINUOUS
 62
    7
 10
287.09166
 20
613.91737
 11
287.09166
 21
543.91737
  0
LINE
  8
_0-3_STR
  6
CONTINUOUS
 62
    7
 10
187.09166
 20
416.91737
 11
187.09166
 21
558.91737
  0
LINE
  8
_0-3_STR
  6
CONTINUOUS
 62
    7
 10
217.09166
 20
416.91737
 11
217.09166
 21
558.91737
  0
LINE
  8
_0-3_STR
  6
CONTINUOUS
 62
    7
 10
459.59166
 20
407.91737
 11
459.59166
 21
567.91737
  0
LINE
  8
_0-3_STR
  6
CONTINUOUS
 62
    7
 10
479.59166
 20
427.91737
 11
479.59166
 21
547.91737
  0
LINE
  8
_0-3_STR
  6
CONTINUOUS
 62
    7
 10
519.59166
 20
367.91737
 11
519.59166
 21
607.91737
  0
LINE
  8
_0-3_STR
  6
CONTINUOUS
 62
    7
 10
559.59166
 20
367.91737
 11
559.59166
 21
607.91737
  0
LINE
  8
_0-3_STR
  6
CONTINUOUS
 62
    7
 10
399.59166
 20
567.91737
 11
459.59166
 21
567.91737
  0
LINE
  8
_0-3_STR
  6
CONTINUOUS
 62
    7
 10
399.59166
 20
407.91737
 11
459.59166
 21
407.91737
  0
LINE
  8
_0-3_STR
  6
CONTINUOUS
 62
    7
 10
459.59166
 20
527.91737
 11
479.59166
 21
527.91737
  0
LINE
  8
_0-3_STR
  6
CONTINUOUS
 62
    7
 10
459.59166
 20
447.91737
 11
479.59166
 21
447.91737
  0
LINE
  8
_0-3_STR
  6
CONTINUOUS
 62
    7
 10
479.59166
 20
547.91737
 11
519.59166
 21
547.91737
  0
LINE
  8
_0-3_STR
  6
CONTINUOUS
 62
    7
 10
479.59166
 20
427.91737
 11
519.59166
 21
427.91737
  0
LINE
  8
_0-3_STR
  6
CONTINUOUS
 62
    7
 10
519.59166
 20
607.91737
 11
559.59166
 21
607.91737
  0
LINE
  8
_0-3_STR
  6
CONTINUOUS
 62
    7
 10
519.59166
 20
367.91737
 11
559.59166
 21
367.91737
  0
LINE
  8
_0-3_STR
  6
CONTINUOUS
 62
    7
 10
584.59166
 20
697.91737
 11
584.59166
 21
267.91737
  0
LINE
  8
_0-3_STR
  6
CONTINUOUS
 62
    7
 10
624.59166
 20
697.91737
 11
624.59166
 21
267.91737
  0
LINE
  8
_0-3_STR
  6
CONTINUOUS
 62
    7
 10
1644.5916
 20
697.91737
 11
1644.5916
 21
267.91737
  0
LINE
  8
_0-3_STR
  6
CONTINUOUS
 62
    7
 10
1774.5916
 20
697.91737
 11
1774.5916
 21
267.91737
  0
LINE
  8
_0-3_STR
  6
CONTINUOUS
 62
    7
 10
287.09166
 20
558.91737
 11
87.091661
 21
558.91737
  0
LINE
  8
_0-3_STR
  6
CONTINUOUS
 62
    7
 10
87.091661
 20
643.91737
 11
287.09166
 21
643.91737
  0
LINE
  8
_0-3_STR
  6
CONTINUOUS
 62
    7
 10
87.091661
 20
643.91737
 11
87.091661
 21
558.91737
  0
LINE
  8
_0-3_STR
  6
CONTINUOUS
 62
    7
 10
2447.9723
 20
51.917377
 11
2837.9723
 21
51.917377
  0
LINE
  8
_0-3_STR
  6
CONTINUOUS
 62
    7
 10
2447.9723
 20
81.917377
 11
2837.9723
 21
81.917377
  0
LINE
  8
_0-1_BMK
  6
CENTER2
 62
    1
 10
2642.9723
 20
1003.3686
 11
2642.9723
 21
1.9173777
  0
CIRCLE
  8
_0-3_STR
  6
CONTINUOUS
 62
    7
 10
2642.9723
 20
487.91737
 40
40
  0
LINE
  8
_0-3_STR
  6
CONTINUOUS
 62
    7
 10
2837.9723
 20
81.917377
 11
2837.9723
 21
51.917377
  0
LINE
  8
_0-3_STR
  6
CONTINUOUS
 62
    7
 10
2447.9723
 20
81.917377
 11
2447.9723
 21
51.917377
  0
LINE
  8
_0-3_STR
  6
CONTINUOUS
 62
    7
 10
2427.9723
 20
267.91737
 11
2427.9723
 21
147.91737
  0
LINE
  8
_0-3_STR
  6
CONTINUOUS
 62
    7
 10
2857.9723
 20
267.91737
 11
2857.9723
 21
147.91737
  0
LINE
  8
_0-1_BMK
  6
CENTER2
 62
    1
 10
2582.9723
 20
141.91737
 11
2702.9723
 21
141.91737
  0
LINE
  8
_0-3_STR
  6
CONTINUOUS
 62
    7
 10
2427.9723
 20
267.91737
 11
2857.9723
 21
267.91737
  0
CIRCLE
  8
_0-3_STR
  6
CONTINUOUS
 62
    7
 10
2642.9723
 20
487.91737
 40
150
  0
LINE
  8
_0-3_STR
  6
CONTINUOUS
 62
    7
 10
2427.9723
 20
227.91737
 11
2857.9723
 21
227.91737
  0
LINE
  8
_0-3_STR
  6
CONTINUOUS
 62
    7
 10
2552.9723
 20
187.91737
 11
2732.9723
 21
187.91737
  0
CIRCLE
  8
_0-3_STR
  6
CONTINUOUS
 62
    7
 10
2642.9723
 20
141.91737
 40
40
  0
LINE
  8
_0-3_STR
  6
CONTINUOUS
 62
    7
 10
2602.9723
 20
101.91737
 11
2602.9723
 21
187.91737
  0
LINE
  8
_0-3_STR
  6
CONTINUOUS
 62
    7
 10
2582.9723
 20
101.91737
 11
2582.9723
 21
187.91737
  0
LINE
  8
_0-3_STR
  6
CONTINUOUS
 62
    7
 10
2552.9723
 20
187.91737
 11
2552.9723
 21
227.91737
  0
LINE
  8
_0-3_STR
  6
CONTINUOUS
 62
    7
 10
2532.9723
 20
147.91737
 11
2532.9723
 21
227.91737
  0
LINE
  8
_0-3_STR
  6
CONTINUOUS
 62
    7
 10
2532.9723
 20
147.91737
 11
2557.9723
 21
147.91737
  0
LINE
  8
_0-3_STR
  6
CONTINUOUS
 62
    7
 10
2557.9723
 20
147.91737
 11
2557.9723
 21
187.91737
  0
LINE
  8
_0-3_STR
  6
CONTINUOUS
 62
    7
 10
2522.9723
 20
187.91737
 11
2522.9723
 21
227.91737
  0
LINE
  8
_0-3_STR
  6
CONTINUOUS
 62
    7
 10
2467.9723
 20
187.91737
 11
2467.9723
 21
227.91737
  0
LINE
  8
_0-3_STR
  6
CONTINUOUS
 62
    7
 10
2482.9723
 20
147.91737
 11
2427.9723
 21
147.91737
  0
LINE
  8
_0-3_STR
  6
CONTINUOUS
 62
    7
 10
2482.9723
 20
187.91737
 11
2482.9723
 21
147.91737
  0
LINE
  8
_0-3_STR
  6
CONTINUOUS
 62
    7
 10
2522.9723
 20
187.91737
 11
2467.9723
 21
187.91737
  0
LINE
  8
_0-3_STR
  6
CONTINUOUS
 62
    7
 10
2602.9723
 20
101.91737
 11
2582.9723
 21
101.91737
  0
LINE
  8
_0-3_STR
  6
CONTINUOUS
 62
    7
 10
2497.9723
 20
81.917377
 11
2497.9723
 21
187.91737
  0
LINE
  8
_0-3_STR
  6
CONTINUOUS
 62
    7
 10
2517.9723
 20
81.917377
 11
2517.9723
 21
187.91737
  0
LINE
  8
_0-3_STR
  6
CONTINUOUS
 62
    7
 10
2767.9723
 20
81.917377
 11
2767.9723
 21
187.91737
  0
LINE
  8
_0-3_STR
  6
CONTINUOUS
 62
    7
 10
2787.9723
 20
81.917377
 11
2787.9723
 21
187.91737
  0
LINE
  8
_0-3_STR
  6
CONTINUOUS
 62
    7
 10
2682.9723
 20
101.91737
 11
2702.9723
 21
101.91737
  0
LINE
  8
_0-3_STR
  6
CONTINUOUS
 62
    7
 10
2762.9723
 20
187.91737
 11
2817.9723
 21
187.91737
  0
LINE
  8
_0-3_STR
  6
CONTINUOUS
 62
    7
 10
2802.9723
 20
187.91737
 11
2802.9723
 21
147.91737
  0
LINE
  8
_0-3_STR
  6
CONTINUOUS
 62
    7
 10
2802.9723
 20
147.91737
 11
2857.9723
 21
147.91737
  0
LINE
  8
_0-3_STR
  6
CONTINUOUS
 62
    7
 10
2817.9723
 20
187.91737
 11
2817.9723
 21
227.91737
  0
LINE
  8
_0-3_STR
  6
CONTINUOUS
 62
    7
 10
2762.9723
 20
187.91737
 11
2762.9723
 21
227.91737
  0
LINE
  8
_0-3_STR
  6
CONTINUOUS
 62
    7
 10
2727.9723
 20
147.91737
 11
2727.9723
 21
187.91737
  0
LINE
  8
_0-3_STR
  6
CONTINUOUS
 62
    7
 10
2752.9723
 20
147.91737
 11
2727.9723
 21
147.91737
  0
LINE
  8
_0-3_STR
  6
CONTINUOUS
 62
    7
 10
2752.9723
 20
147.91737
 11
2752.9723
 21
227.91737
  0
LINE
  8
_0-3_STR
  6
CONTINUOUS
 62
    7
 10
2732.9723
 20
187.91737
 11
2732.9723
 21
227.91737
  0
LINE
  8
_0-3_STR
  6
CONTINUOUS
 62
    7
 10
2702.9723
 20
101.91737
 11
2702.9723
 21
187.91737
  0
LINE
  8
_0-3_STR
  6
CONTINUOUS
 62
    7
 10
2682.9723
 20
101.91737
 11
2682.9723
 21
187.91737
  0
LINE
  8
_0-3_STR
  6
CONTINUOUS
 62
    7
 10
2857.9723
 20
267.91737
 11
2857.9723
 21
147.91737
  0
LINE
  8
_0-3_STR
  6
CONTINUOUS
 62
    7
 10
2762.9723
 20
187.91737
 11
2817.9723
 21
187.91737
  0
LINE
  8
_0-3_STR
  6
CONTINUOUS
 62
    7
 10
2507.9723
 20
227.91737
 11
2507.9723
 21
747.91737
  0
LINE
  8
_0-3_STR
  6
CONTINUOUS
 62
    7
 10
2507.9723
 20
747.91737
 11
2777.9723
 21
747.91737
  0
LINE
  8
_0-3_STR
  6
CONTINUOUS
 62
    7
 10
2507.9723
 20
717.91737
 11
2777.9723
 21
717.91737
  0
LINE
  8
_0-3_STR
  6
CONTINUOUS
 62
    7
 10
2507.9723
 20
297.91737
 11
2777.9723
 21
297.91737
  0
LINE
  8
_0-3_STR
  6
CONTINUOUS
 62
    7
 10
2777.9723
 20
227.91737
 11
2777.9723
 21
747.91737
  0
LINE
  8
_0-3_STR
  6
CONTINUOUS
 62
    7
 10
2572.9723
 20
747.91737
 11
2572.9723
 21
802.91737
  0
LINE
  8
_0-3_STR
  6
CONTINUOUS
 62
    7
 10
2542.9723
 20
802.91737
 11
2742.9723
 21
802.91737
  0
LINE
  8
_0-3_STR
  6
CONTINUOUS
 62
    7
 10
2542.9723
 20
867.91737
 11
2742.9723
 21
867.91737
  0
LINE
  8
_0-3_STR
  6
CONTINUOUS
 62
    7
 10
2592.9723
 20
867.91737
 11
2592.9723
 21
932.91737
  0
LINE
  8
_0-3_STR
  6
CONTINUOUS
 62
    7
 10
2542.9723
 20
867.91737
 11
2542.9723
 21
802.91737
  0
LINE
  8
_0-3_STR
  6
CONTINUOUS
 62
    7
 10
2742.9723
 20
867.91737
 11
2742.9723
 21
802.91737
  0
LINE
  8
_0-3_STR
  6
CONTINUOUS
 62
    7
 10
2712.9723
 20
747.91737
 11
2712.9723
 21
802.91737
  0
CIRCLE
  8
_0-3_STR
  6
CONTINUOUS
 62
    7
 10
2592.9723
 20
942.91737
 40
10
  0
CIRCLE
  8
_0-3_STR
  6
CONTINUOUS
 62
    7
 10
2692.9723
 20
942.91737
 40
10
  0
LINE
  8
_0-3_STR
  6
CONTINUOUS
 62
    7
 10
2692.9723
 20
867.91737
 11
2692.9723
 21
932.91737
  0
LINE
  8
_0-3_STR
  6
CONTINUOUS
 62
    7
 10
-15.408338
 20
94.917377
 11
-95.408338
 21
94.917377
  0
LINE
  8
_0-3_STR
  6
CONTINUOUS
 62
    7
 10
-15.408338
 20
208.91737
 11
-95.408338
 21
208.91737
  0
LINE
  8
_0-3_STR
  6
CONTINUOUS
 62
    7
 10
-15.408338
 20
170.91737
 11
-95.408338
 21
170.91737
  0
LINE
  8
_0-3_STR
  6
CONTINUOUS
 62
    7
 10
-15.408338
 20
132.91737
 11
-95.408338
 21
132.91737
  0
LINE
  8
_0-3_STR
  6
CONTINUOUS
 62
    7
 10
1774.5916
 20
1372.9173
 11
1774.5916
 21
1802.9173
  0
LINE
  8
_0-1_BMK
  6
CENTER2
 62
    1
 10
-150.96876
 20
1587.9173
 11
1852.0657
 21
1587.9173
  0
LINE
  8
_0-3_STR
  6
CONTINUOUS
 62
    7
 10
-15.408338
 20
1802.9173
 11
459.59166
 21
1802.9173
  0
LINE
  8
_0-3_STR
  6
CONTINUOUS
 62
    7
 10
-15.408338
 20
1372.9173
 11
459.59166
 21
1372.9173
  0
LINE
  8
_0-3_STR
  6
CONTINUOUS
 62
    7
 10
1734.5916
 20
1397.9173
 11
1734.5916
 21
1777.9173
  0
LINE
  8
_0-3_STR
  6
CONTINUOUS
 62
    7
 10
-15.408338
 20
1372.9173
 11
-15.408338
 21
1802.9173
  0
LINE
  8
_0-3_STR
  6
CONTINUOUS
 62
    7
 10
1284.5916
 20
1397.9173
 11
1284.5916
 21
1777.9173
  0
LINE
  8
_0-3_STR
  6
CONTINUOUS
 62
    7
 10
-95.408338
 20
1539.0509
 11
-95.408338
 21
1636.7838
  0
LINE
  8
_0-1_BMK
  6
CENTER2
 62
    1
 10
34.591661
 20
438.82769
 11
34.591661
 21
185.90606
  0
LINE
  8
_0-3_STR
  6
CONTINUOUS
 62
    7
 10
87.091661
 20
1487.9173
 11
87.091661
 21
1567.9173
  0
LINE
  8
_0-1_BMK
  6
CENTER2
 62
    1
 10
34.591661
 20
1387.9173
 11
34.591661
 21
1427.9173
  0
LINE
  8
_0-3_STR
  6
CONTINUOUS
 62
    7
 10
-35.408338
 20
1392.9173
 11
-35.408338
 21
1782.9173
  0
LINE
  8
_0-3_STR
  6
CONTINUOUS
 62
    7
 10
-35.408338
 20
1782.9173
 11
-95.408338
 21
1636.7838
  0
LINE
  8
_0-3_STR
  6
CONTINUOUS
 62
    7
 10
-35.408338
 20
1392.9173
 11
-95.408338
 21
1539.0509
  0
LINE
  8
_0-3_STR
  6
CONTINUOUS
 62
    7
 10
287.09166
 20
1467.9173
 11
287.09166
 21
1707.9173
  0
LINE
  8
_0-3_STR
  6
CONTINUOUS
 62
    7
 10
399.59166
 20
1467.9173
 11
399.59166
 21
1707.9173
  0
LINE
  8
_0-3_STR
  6
CONTINUOUS
 62
    7
 10
459.59166
 20
1372.9173
 11
459.59166
 21
1802.9173
  0
LINE
  8
_0-3_STR
  6
CONTINUOUS
 62
    7
 10
479.59166
 20
1372.9173
 11
479.59166
 21
1802.9173
  0
LINE
  8
_0-3_STR
  6
CONTINUOUS
 62
    7
 10
87.091661
 20
1607.9173
 11
287.09166
 21
1607.9173
  0
LINE
  8
_0-3_STR
  6
CONTINUOUS
 62
    7
 10
87.091661
 20
1567.9173
 11
287.09166
 21
1567.9173
  0
LINE
  8
_0-3_STR
  6
CONTINUOUS
 62
    7
 10
87.091661
 20
1687.9173
 11
287.09166
 21
1687.9173
  0
LINE
  8
_0-3_STR
  6
CONTINUOUS
 62
    7
 10
87.091661
 20
1487.9173
 11
287.09166
 21
1487.9173
  0
LINE
  8
_0-3_STR
  6
CONTINUOUS
 62
    7
 10
87.091661
 20
1607.9173
 11
87.091661
 21
1687.9173
  0
LINE
  8
_0-3_STR
  6
CONTINUOUS
 62
    7
 10
287.09166
 20
1707.9173
 11
399.59166
 21
1707.9173
  0
LINE
  8
_0-3_STR
  6
CONTINUOUS
 62
    7
 10
287.09166
 20
1467.9173
 11
399.59166
 21
1467.9173
  0
LINE
  8
_0-3_STR
  6
CONTINUOUS
 62
    7
 10
399.59166
 20
1697.9173
 11
429.59166
 21
1697.9173
  0
LINE
  8
_0-3_STR
  6
CONTINUOUS
 62
    7
 10
399.59166
 20
1477.9173
 11
429.59166
 21
1477.9173
  0
LINE
  8
_0-3_STR
  6
CONTINUOUS
 62
    7
 10
429.59166
 20
1477.9173
 11
429.59166
 21
1697.9173
  0
LINE
  8
_0-3_STR
  6
CONTINUOUS
 62
    7
 10
429.59166
 20
1627.9173
 11
459.59166
 21
1627.9173
  0
LINE
  8
_0-3_STR
  6
CONTINUOUS
 62
    7
 10
429.59166
 20
1547.9173
 11
459.59166
 21
1547.9173
  0
LINE
  8
_0-3_STR
  6
CONTINUOUS
 62
    7
 10
519.59166
 20
1372.9173
 11
519.59166
 21
1802.9173
  0
LINE
  8
_0-3_STR
  6
CONTINUOUS
 62
    7
 10
519.59166
 20
1802.9173
 11
1774.5916
 21
1802.9173
  0
LINE
  8
_0-3_STR
  6
CONTINUOUS
 62
    7
 10
519.59166
 20
1372.9173
 11
1774.5916
 21
1372.9173
  0
LINE
  8
_0-3_STR
  6
CONTINUOUS
 62
    7
 10
459.59166
 20
1647.9173
 11
479.59166
 21
1647.9173
  0
LINE
  8
_0-3_STR
  6
CONTINUOUS
 62
    7
 10
459.59166
 20
1527.9173
 11
479.59166
 21
1527.9173
  0
LINE
  8
_0-3_STR
  6
CONTINUOUS
 62
    7
 10
479.59166
 20
1727.9173
 11
519.59166
 21
1727.9173
  0
LINE
  8
_0-3_STR
  6
CONTINUOUS
 62
    7
 10
479.59166
 20
1447.9173
 11
519.59166
 21
1447.9173
  0
LINE
  8
_0-3_STR
  6
CONTINUOUS
 62
    7
 10
459.59166
 20
1777.9173
 11
519.59166
 21
1777.9173
  0
LINE
  8
_0-3_STR
  6
CONTINUOUS
 62
    7
 10
459.59166
 20
1397.9173
 11
519.59166
 21
1397.9173
  0
LINE
  8
_0-3_STR
  6
CONTINUOUS
 62
    7
 10
539.59166
 20
1372.9173
 11
539.59166
 21
1802.9173
  0
LINE
  8
_0-3_STR
  6
CONTINUOUS
 62
    7
 10
589.59166
 20
1372.9173
 11
589.59166
 21
1802.9173
  0
LINE
  8
_0-1_BMK
  6
CENTER2
 62
    1
 10
54.591661
 20
1647.9173
 11
14.591661
 21
1647.9173
  0
CIRCLE
  8
_0-3_STR
  6
CONTINUOUS
 62
    7
 10
-65.408338
 20
1587.9173
 40
5
  0
LINE
  8
_0-1_BMK
  6
CENTER2
 62
    1
 10
-65.408338
 20
1607.9173
 11
-65.408338
 21
1567.9173
  0
CIRCLE
  8
_0-3_STR
  6
CONTINUOUS
 62
    7
 10
34.591661
 20
1647.9173
 40
5
  0
LINE
  8
_0-1_BMK
  6
CENTER2
 62
    1
 10
54.591661
 20
1527.9173
 11
14.591661
 21
1527.9173
  0
CIRCLE
  8
_0-3_STR
  6
CONTINUOUS
 62
    7
 10
34.591661
 20
1527.9173
 40
5
  0
CIRCLE
  8
_0-3_STR
  6
CONTINUOUS
 62
    7
 10
34.591661
 20
1767.9173
 40
5
  0
LINE
  8
_0-1_BMK
  6
CENTER2
 62
    1
 10
54.591661
 20
1767.9173
 11
14.591661
 21
1767.9173
  0
CIRCLE
  8
_0-3_STR
  6
CONTINUOUS
 62
    7
 10
34.591661
 20
1407.9173
 40
5
  0
LINE
  8
_0-1_BMK
  6
CENTER2
 62
    1
 10
54.591661
 20
1407.9173
 11
14.591661
 21
1407.9173
  0
LINE
  8
_0-1_BMK
  6
CENTER2
 62
    1
 10
34.591661
 20
1747.9173
 11
34.591661
 21
1787.9173
  0
LINE
  8
_0-1_BMK
  6
CENTER2
 62
    1
 10
34.591661
 20
1627.9173
 11
34.591661
 21
1667.9173
  0
LINE
  8
_0-1_BMK
  6
CENTER2
 62
    1
 10
34.591661
 20
1507.9173
 11
34.591661
 21
1547.9173
  0
LINE
  8
_0-3_STR
  6
CONTINUOUS
 62
    7
 10
589.59166
 20
1657.9173
 11
1284.5916
 21
1657.9173
  0
LINE
  8
_0-3_STR
  6
CONTINUOUS
 62
    7
 10
589.59166
 20
1517.9173
 11
1284.5916
 21
1517.9173
  0
LINE
  8
_0-3_STR
  6
CONTINUOUS
 62
    7
 10
589.59166
 20
1702.9173
 11
1734.5916
 21
1702.9173
  0
LINE
  8
_0-3_STR
  6
CONTINUOUS
 62
    7
 10
589.59166
 20
1472.9173
 11
1734.5916
 21
1472.9173
  0
LINE
  8
_0-3_STR
  6
CONTINUOUS
 62
    7
 10
589.59166
 20
1777.9173
 11
1734.5916
 21
1777.9173
  0
LINE
  8
_0-3_STR
  6
CONTINUOUS
 62
    7
 10
589.59166
 20
1397.9173
 11
1734.5916
 21
1397.9173
  0
LINE
  8
_0-3_STR
  6
CONTINUOUS
 62
    7
 10
789.59166
 20
1517.9173
 11
789.59166
 21
1657.9173
  0
LINE
  8
_0-3_STR
  6
CONTINUOUS
 62
    7
 10
889.59166
 20
1397.9173
 11
889.59166
 21
1777.9173
  0
LINE
  8
_0-1_BMK
  6
CENTER2
 62
    1
 10
909.59166
 20
1747.9173
 11
869.59166
 21
1747.9173
  0
LINE
  8
_0-1_BMK
  6
CENTER2
 62
    1
 10
909.59166
 20
1627.9173
 11
869.59166
 21
1627.9173
  0
LINE
  8
_0-1_BMK
  6
CENTER2
 62
    1
 10
909.59166
 20
1547.9173
 11
869.59166
 21
1547.9173
  0
LINE
  8
_0-1_BMK
  6
CENTER2
 62
    1
 10
909.59166
 20
1427.9173
 11
869.59166
 21
1427.9173
  0
LINE
  8
_0-1_BMK
  6
CENTER2
 62
    1
 10
2292.9723
 20
487.91737
 11
2992.9723
 21
487.91737
  0
LINE
  8
_0-3_STR
  6
CONTINUOUS
 62
    7
 10
-35.408338
 20
1782.9173
 11
-15.408338
 21
1782.9173
  0
LINE
  8
_0-3_STR
  6
CONTINUOUS
 62
    7
 10
-35.408338
 20
1392.9173
 11
-15.408338
 21
1392.9173
  0
TEXT
  8
_0-3_STR
 62
    7
 10
927.59367
 20
836.96577
 40
60
 41
1
 50
0
  1
MAXφ400
  0
LINE
  8
_0-3_STR
  6
CONTINUOUS
 62
    7
 10
888.55123
 20
804.31457
 11
1381.7709
 21
804.31457
  0
TEXT
  8
_0-3_STR
 62
    7
 10
-115.96172
 20
2358.8296
 40
60
 41
1
 50
0
  1
ベビーモール機外形寸法図
  0
TEXT
  8
_0-3_STR
 62
    7
 10
-115.96172
 20
2164.6608
 40
60
 41
1
 50
0
  1
3-2-2　　KYT-204WH
  0
TEXT
  8
_0-3_STR
 62
    7
 10
1080.9687
 20
2290.6081
 40
60
 41
1
 50
0
  1
（寸法の比率は正確です。倍率を合わせて使用してください。）
  0
LINE
  8
_0-3_STR
  6
CONTINUOUS
 62
    7
 10
1474.4923
 20
697.91737
 11
1381.7709
 21
804.31457
  0
LINE
  8
_0-3_STR
  6
CONTINUOUS
 62
    7
 10
-95.408338
 20
51.793954
 11
-95.408338
 21
-232.173
  0
LINE
  8
_0-3_STR
  6
CONTINUOUS
 62
    7
 10
1734.5916
 20
51.793954
 11
1734.5916
 21
-232.173
  0
LINE
  8
_0-3_STR
  6
CONTINUOUS
 62
    7
 10
-45.408338
 20
-230.923
 11
1684.5916
 21
-230.923
  0
LINE
  8
_0-3_STR
  6
CONTINUOUS
 62
    7
 10
-15.408338
 20
1342.7939
 11
-15.408338
 21
1054.1229
  0
LINE
  8
_0-3_STR
  6
CONTINUOUS
 62
    7
 10
1734.5916
 20
1342.7939
 11
1734.5916
 21
1054.1229
  0
LINE
  8
_0-3_STR
  6
CONTINUOUS
 62
    7
 10
34.591661
 20
1055.3729
 11
1684.5916
 21
1055.3729
  0
LINE
  8
_0-3_STR
  6
CONTINUOUS
 62
    7
 10
-95.408338
 20
51.793954
 11
-95.408338
 21
-85.234424
  0
LINE
  8
_0-3_STR
  6
CONTINUOUS
 62
    7
 10
1284.5916
 20
51.793954
 11
1284.5916
 21
-85.234424
  0
LINE
  8
_0-3_STR
  6
CONTINUOUS
 62
    7
 10
-45.408338
 20
-83.984424
 11
1234.5916
 21
-83.984424
  0
LINE
  8
_0-3_STR
  6
CONTINUOUS
 62
    7
 10
-15.408338
 20
1342.7939
 11
-15.408338
 21
1189.9825
  0
LINE
  8
_0-3_STR
  6
CONTINUOUS
 62
    7
 10
1284.5916
 20
1342.7939
 11
1284.5916
 21
1189.9825
  0
LINE
  8
_0-3_STR
  6
CONTINUOUS
 62
    7
 10
34.591661
 20
1191.2325
 11
1234.5916
 21
1191.2325
  0
LINE
  8
_0-3_STR
  6
CONTINUOUS
 62
    7
 10
2427.9723
 20
116.82429
 11
2427.9723
 21
-306.6822
  0
LINE
  8
_0-3_STR
  6
CONTINUOUS
 62
    7
 10
2857.9723
 20
116.82429
 11
2857.9723
 21
-306.6822
  0
LINE
  8
_0-3_STR
  6
CONTINUOUS
 62
    7
 10
2477.9723
 20
-305.4322
 11
2807.9723
 21
-305.4322
  0
LINE
  8
_0-3_STR
  6
CONTINUOUS
 62
    7
 10
2447.9723
 20
20.020091
 11
2447.9723
 21
-164.02338
  0
LINE
  8
_0-3_STR
  6
CONTINUOUS
 62
    7
 10
2837.9723
 20
20.020091
 11
2837.9723
 21
-164.02338
  0
LINE
  8
_0-3_STR
  6
CONTINUOUS
 62
    7
 10
2497.9723
 20
-162.77338
 11
2787.9723
 21
-162.77338
  0
LINE
  8
_0-3_STR
  6
CONTINUOUS
 62
    7
 10
2399.416
 20
487.91737
 11
2251.5361
 21
487.91737
  0
LINE
  8
_0-3_STR
  6
CONTINUOUS
 62
    7
 10
2399.416
 20
51.917377
 11
2251.5361
 21
51.917377
  0
LINE
  8
_0-3_STR
  6
CONTINUOUS
 62
    7
 10
2252.7861
 20
437.91737
 11
2252.7861
 21
101.91737
  0
LINE
  8
_0-3_STR
  6
CONTINUOUS
 62
    7
 10
2507.7678
 20
952.91737
 11
2104.5447
 21
952.91737
  0
LINE
  8
_0-3_STR
  6
CONTINUOUS
 62
    7
 10
2341.4971
 20
51.917377
 11
2104.5447
 21
51.917377
  0
LINE
  8
_0-3_STR
  6
CONTINUOUS
 62
    7
 10
2105.7947
 20
902.91737
 11
2105.7947
 21
101.91737
  0
LINE
  8
_0-3_STR
  6
CONTINUOUS
 62
    7
 10
1474.4923
 20
697.91737
 11
1473.2423
 21
697.91737
  0
LINE
  8
_0-3_STR
  6
CONTINUOUS
 62
    7
 10
1474.4923
 20
267.91737
 11
1473.2423
 21
267.91737
  0
LINE
  8
_0-3_STR
  6
CONTINUOUS
 62
    7
 10
1474.4923
 20
647.91737
 11
1474.4923
 21
317.91737
  0
TEXT
  8
_0-3_STR
 62
    7
 10
1444.4923
 20
452.91737
 40
60
 41
1
 50
90
  1
　
  0
LINE
  8
_0-3_STR
  6
CONTINUOUS
 62
    7
 10
-45.408338
 20
-244.32046
 11
-95.408338
 21
-230.923
  0
LINE
  8
_0-3_STR
  6
CONTINUOUS
 62
    7
 10
-95.408338
 20
-230.923
 11
-45.408338
 21
-217.52554
  0
LINE
  8
_0-3_STR
  6
CONTINUOUS
 62
    7
 10
-95.408338
 20
-230.923
 11
-45.408338
 21
-230.923
  0
LINE
  8
_0-3_STR
  6
CONTINUOUS
 62
    7
 10
-45.408338
 20
-97.381883
 11
-95.408338
 21
-83.984424
  0
LINE
  8
_0-3_STR
  6
CONTINUOUS
 62
    7
 10
-95.408338
 20
-83.984424
 11
-45.408338
 21
-70.586964
  0
LINE
  8
_0-3_STR
  6
CONTINUOUS
 62
    7
 10
-95.408338
 20
-83.984424
 11
-45.408338
 21
-83.984424
  0
LINE
  8
_0-3_STR
  6
CONTINUOUS
 62
    7
 10
34.591661
 20
1041.9754
 11
-15.408338
 21
1055.3729
  0
LINE
  8
_0-3_STR
  6
CONTINUOUS
 62
    7
 10
-15.408338
 20
1055.3729
 11
34.591661
 21
1068.7704
  0
LINE
  8
_0-3_STR
  6
CONTINUOUS
 62
    7
 10
-15.408338
 20
1055.3729
 11
34.591661
 21
1055.3729
  0
LINE
  8
_0-3_STR
  6
CONTINUOUS
 62
    7
 10
1234.5916
 20
-70.586964
 11
1284.5916
 21
-83.984424
  0
LINE
  8
_0-3_STR
  6
CONTINUOUS
 62
    7
 10
1284.5916
 20
-83.984424
 11
1234.5916
 21
-97.381883
  0
LINE
  8
_0-3_STR
  6
CONTINUOUS
 62
    7
 10
1284.5916
 20
-83.984424
 11
1234.5916
 21
-83.984424
  0
LINE
  8
_0-3_STR
  6
CONTINUOUS
 62
    7
 10
34.591661
 20
1177.8351
 11
-15.408338
 21
1191.2325
  0
LINE
  8
_0-3_STR
  6
CONTINUOUS
 62
    7
 10
-15.408338
 20
1191.2325
 11
34.591661
 21
1204.63
  0
LINE
  8
_0-3_STR
  6
CONTINUOUS
 62
    7
 10
-15.408338
 20
1191.2325
 11
34.591661
 21
1191.2325
  0
LINE
  8
_0-3_STR
  6
CONTINUOUS
 62
    7
 10
1234.5916
 20
1204.63
 11
1284.5916
 21
1191.2325
  0
LINE
  8
_0-3_STR
  6
CONTINUOUS
 62
    7
 10
1284.5916
 20
1191.2325
 11
1234.5916
 21
1177.8351
  0
LINE
  8
_0-3_STR
  6
CONTINUOUS
 62
    7
 10
1284.5916
 20
1191.2325
 11
1234.5916
 21
1191.2325
  0
TEXT
  8
_0-3_STR
 62
    7
 10
2567.9723
 20
-132.77338
 40
60
 41
1
 50
0
  1
390
  0
TEXT
  8
_0-3_STR
 62
    7
 10
2567.9723
 20
-275.4322
 40
60
 41
1
 50
0
  1
430
  0
TEXT
  8
_0-3_STR
 62
    7
 10
2222.7861
 20
189.91737
 40
60
 41
1
 50
90
  1
436
  0
LINE
  8
_0-3_STR
  6
CONTINUOUS
 62
    7
 10
1684.5916
 20
-217.52554
 11
1734.5916
 21
-230.923
  0
LINE
  8
_0-3_STR
  6
CONTINUOUS
 62
    7
 10
1734.5916
 20
-230.923
 11
1684.5916
 21
-244.32046
  0
LINE
  8
_0-3_STR
  6
CONTINUOUS
 62
    7
 10
1734.5916
 20
-230.923
 11
1684.5916
 21
-230.923
  0
LINE
  8
_0-3_STR
  6
CONTINUOUS
 62
    7
 10
2477.9723
 20
-318.82966
 11
2427.9723
 21
-305.4322
  0
LINE
  8
_0-3_STR
  6
CONTINUOUS
 62
    7
 10
2427.9723
 20
-305.4322
 11
2477.9723
 21
-292.03475
  0
LINE
  8
_0-3_STR
  6
CONTINUOUS
 62
    7
 10
2427.9723
 20
-305.4322
 11
2477.9723
 21
-305.4322
  0
LINE
  8
_0-3_STR
  6
CONTINUOUS
 62
    7
 10
2119.1921
 20
101.91737
 11
2105.7947
 21
51.917377
  0
LINE
  8
_0-3_STR
  6
CONTINUOUS
 62
    7
 10
2105.7947
 20
51.917377
 11
2092.3972
 21
101.91737
  0
LINE
  8
_0-3_STR
  6
CONTINUOUS
 62
    7
 10
2105.7947
 20
51.917377
 11
2105.7947
 21
101.91737
  0
LINE
  8
_0-3_STR
  6
CONTINUOUS
 62
    7
 10
2266.1836
 20
101.91737
 11
2252.7861
 21
51.917377
  0
LINE
  8
_0-3_STR
  6
CONTINUOUS
 62
    7
 10
2252.7861
 20
51.917377
 11
2239.3887
 21
101.91737
  0
LINE
  8
_0-3_STR
  6
CONTINUOUS
 62
    7
 10
2252.7861
 20
51.917377
 11
2252.7861
 21
101.91737
  0
LINE
  8
_0-3_STR
  6
CONTINUOUS
 62
    7
 10
2497.9723
 20
-176.17084
 11
2447.9723
 21
-162.77338
  0
LINE
  8
_0-3_STR
  6
CONTINUOUS
 62
    7
 10
2447.9723
 20
-162.77338
 11
2497.9723
 21
-149.37593
  0
LINE
  8
_0-3_STR
  6
CONTINUOUS
 62
    7
 10
2447.9723
 20
-162.77338
 11
2497.9723
 21
-162.77338
  0
LINE
  8
_0-3_STR
  6
CONTINUOUS
 62
    7
 10
1461.0948
 20
647.91737
 11
1474.4923
 21
697.91737
  0
LINE
  8
_0-3_STR
  6
CONTINUOUS
 62
    7
 10
1474.4923
 20
697.91737
 11
1487.8898
 21
647.91737
  0
LINE
  8
_0-3_STR
  6
CONTINUOUS
 62
    7
 10
1474.4923
 20
697.91737
 11
1474.4923
 21
647.91737
  0
LINE
  8
_0-3_STR
  6
CONTINUOUS
 62
    7
 10
1487.8898
 20
317.91737
 11
1474.4923
 21
267.91737
  0
LINE
  8
_0-3_STR
  6
CONTINUOUS
 62
    7
 10
1474.4923
 20
267.91737
 11
1461.0948
 21
317.91737
  0
LINE
  8
_0-3_STR
  6
CONTINUOUS
 62
    7
 10
1474.4923
 20
267.91737
 11
1474.4923
 21
317.91737
  0
LINE
  8
_0-3_STR
  6
CONTINUOUS
 62
    7
 10
1684.5916
 20
1068.7704
 11
1734.5916
 21
1055.3729
  0
LINE
  8
_0-3_STR
  6
CONTINUOUS
 62
    7
 10
1734.5916
 20
1055.3729
 11
1684.5916
 21
1041.9754
  0
LINE
  8
_0-3_STR
  6
CONTINUOUS
 62
    7
 10
1734.5916
 20
1055.3729
 11
1684.5916
 21
1055.3729
  0
TEXT
  8
_0-3_STR
 62
    7
 10
2075.7947
 20
437.41737
 40
60
 41
1
 50
90
  1
901
  0
LINE
  8
_0-3_STR
  6
CONTINUOUS
 62
    7
 10
2239.3887
 20
437.91737
 11
2252.7861
 21
487.91737
  0
LINE
  8
_0-3_STR
  6
CONTINUOUS
 62
    7
 10
2252.7861
 20
487.91737
 11
2266.1836
 21
437.91737
  0
LINE
  8
_0-3_STR
  6
CONTINUOUS
 62
    7
 10
2252.7861
 20
487.91737
 11
2252.7861
 21
437.91737
  0
LINE
  8
_0-3_STR
  6
CONTINUOUS
 62
    7
 10
2092.3972
 20
902.91737
 11
2105.7947
 21
952.91737
  0
LINE
  8
_0-3_STR
  6
CONTINUOUS
 62
    7
 10
2105.7947
 20
952.91737
 11
2119.1921
 21
902.91737
  0
LINE
  8
_0-3_STR
  6
CONTINUOUS
 62
    7
 10
2105.7947
 20
952.91737
 11
2105.7947
 21
902.91737
  0
LINE
  8
_0-3_STR
  6
CONTINUOUS
 62
    7
 10
2807.9723
 20
-292.03475
 11
2857.9723
 21
-305.4322
  0
LINE
  8
_0-3_STR
  6
CONTINUOUS
 62
    7
 10
2857.9723
 20
-305.4322
 11
2807.9723
 21
-318.82966
  0
LINE
  8
_0-3_STR
  6
CONTINUOUS
 62
    7
 10
2857.9723
 20
-305.4322
 11
2807.9723
 21
-305.4322
  0
LINE
  8
_0-3_STR
  6
CONTINUOUS
 62
    7
 10
2787.9723
 20
-149.37593
 11
2837.9723
 21
-162.77338
  0
LINE
  8
_0-3_STR
  6
CONTINUOUS
 62
    7
 10
2837.9723
 20
-162.77338
 11
2787.9723
 21
-176.17084
  0
LINE
  8
_0-3_STR
  6
CONTINUOUS
 62
    7
 10
2837.9723
 20
-162.77338
 11
2787.9723
 21
-162.77338
  0
TEXT
  8
_0-3_STR
 62
    7
 10
505.48411
 20
1200.5219
 40
60
 41
1
 50
0
  1
1300　(1080)
  0
TEXT
  8
_0-3_STR
 62
    7
 10
730.14372
 20
1056.7397
 40
60
 41
1
 50
0
  1
1750
  0
TEXT
  8
_0-3_STR
 62
    7
 10
460.55219
 20
-66.558245
 40
60
 41
1
 50
0
  1
1380　(1080)
  0
TEXT
  8
_0-3_STR
 62
    7
 10
698.69137
 20
-214.83358
 40
60
 41
1
 50
0
  1
1830
  0
ENDSEC
  0
EOF
