  0
SECTION
  2
HEADER
  9
$ACADVER
  1
AC1009
  9
$INSBASE
 10
0
 20
0
 30
0
  9
$EXTMIN
 10
0
 20
0
  9
$EXTMAX
 10
8400
 20
5940
  9
$LIMMIN
 10
0
 20
0
  9
$LIMMAX
 10
8400
 20
5940
  9
$LTSCALE
 40
20
  0
ENDSEC
  0
SECTION
  2
TABLES
  0
TABLE
  2
LTYPE
 70
     9
  0
LTYPE
  2
CONTINUOUS
 70
    64
  3
実線
 72
    65
 73
     0
 40
0.0
  0
LTYPE
  2
DASHED1
 70
    64
  3
--  --  --  --  --  --  --  --  
 72
    65
 73
     2
 40
2.5
 49
1.25
 49
-1.25
  0
LTYPE
  2
DASHED2
 70
    64
  3
----    ----    ----    ----    
 72
    65
 73
     2
 40
5.0
 49
2.5
 49
-2.5
  0
LTYPE
  2
DASHED3
 70
    64
  3
------  ------  ------  ------  
 72
    65
 73
     2
 40
5.0
 49
3.75
 49
-1.25
  0
LTYPE
  2
CENTER1
 70
    64
  3
----- - ----- - ----- - ----- - 
 72
    65
 73
     4
 40
10.0
 49
6.25
 49
-1.25
 49
1.25
 49
-1.25
  0
LTYPE
  2
CENTER2
 70
    64
  3
----------  --  ----------  --  
 72
    65
 73
     4
 40
20.0
 49
12.5
 49
-2.5
 49
2.5
 49
-2.5
  0
LTYPE
  2
PHANTOM1
 70
    64
  3
--- - - --- - - --- - - --- - - 
 72
    65
 73
     6
 40
10.0
 49
3.25
 49
-1.25
 49
1.25
 49
-1.25
 49
1.25
 49
-1.25
  0
LTYPE
  2
PHANTOM2
 70
    64
  3
--------  -  -  --------  -  -  
 72
    65
 73
     6
 40
20.0
 49
10.0
 49
-2.5
 49
1.25
 49
-2.5
 49
1.25
 49
-2.5
  0
LTYPE
  2
DOT
 70
    64
  3
-   -   -   -   -   -   -   -   
 72
    65
 73
     2
 40
2.5
 49
0.625
 49
-1.875
  0
LTYPE
  2
DUMMY
 70
    64
  3
ダミー
 72
    65
 73
     0
 40
0.0
  0
LTYPE
  2
RAND1
 70
    64
  3
----- - ----- - ----- - ----- - 
 72
    65
 73
     4
 40
10.0
 49
6.25
 49
-1.25
 49
1.25
 49
-1.25
  0
LTYPE
  2
RAND2
 70
    64
  3
----------  --  ----------  --  
 72
    65
 73
     4
 40
20.0
 49
12.5
 49
-2.5
 49
2.5
 49
-2.5
  0
LTYPE
  2
RAND3
 70
    64
  3
--- - - --- - - --- - - --- - - 
 72
    65
 73
     6
 40
10.0
 49
3.25
 49
-1.25
 49
1.25
 49
-1.25
 49
1.25
 49
-1.25
  0
LTYPE
  2
RAND4
 70
    64
  3
--------  -  -  --------  -  -  
 72
    65
 73
     6
 40
20.0
 49
10.0
 49
-2.5
 49
1.25
 49
-2.5
 49
1.25
 49
-2.5
  0
LTYPE
  2
RAND5
 70
    64
  3
----- - ----- - ----- - ----- - 
 72
    65
 73
     4
 40
10.0
 49
6.25
 49
-1.25
 49
1.25
 49
-1.25
  0
LTYPE
  2
LONG1
 70
    64
  3
----------  --  ----------  --  
 72
    65
 73
     4
 40
20.0
 49
12.5
 49
-2.5
 49
2.5
 49
-2.5
  0
LTYPE
  2
LONG2
 70
    64
  3
--- - - --- - - --- - - --- - - 
 72
    65
 73
     6
 40
10.0
 49
3.25
 49
-1.25
 49
1.25
 49
-1.25
 49
1.25
 49
-1.25
  0
LTYPE
  2
LONG3
 70
    64
  3
--------  -  -  --------  -  -  
 72
    65
 73
     6
 40
20.0
 49
10.0
 49
-2.5
 49
1.25
 49
-2.5
 49
1.25
 49
-2.5
  0
LTYPE
  2
LONG4
 70
    64
  3
----- - ----- - ----- - ----- - 
 72
    65
 73
     4
 40
10.0
 49
6.25
 49
-1.25
 49
1.25
 49
-1.25
  0
LTYPE
  2
LONG5
 70
    64
  3
----------  --  ----------  --  
 72
    65
 73
     4
 40
20.0
 49
12.5
 49
-2.5
 49
2.5
 49
-2.5
  0
ENDTAB
  0
TABLE
  2
STYLE
  5
3
100
AcDbSymbolTable
 70
     1
  0
STYLE
  5
10
100
AcDbSymbolTableRecord
100
AcDbTextStyleTableRecord
  2
STANDARD
 70
     0
 40
0.0
 41
1.0
 50
0.0
 71
     0
 42
0.2
  3
txt
  4
bigfont.shx
  0
STYLE
  5
26
100
AcDbSymbolTableRecord
100
AcDbTextStyleTableRecord
  2
TATEGAKI
 70
    68
 40
0.0
 41
1.0
 50
0.0
 71
     0
 42
1.0
  3
txt
  4
bigfont.shx
  0
ENDTAB
  0
TABLE
  2
LAYER
 70
    3
  0
LAYER
  2
_0-1_BMK
 70
   64
 62
    7
  6
CONTINUOUS
  0
LAYER
  2
_0-3_STR
 70
   64
 62
    7
  6
CONTINUOUS
  0
LAYER
  2
ADD_LINE
 70
   64
 62
    7
  6
CONTINUOUS
  0
ENDTAB
  0
ENDSEC
  0
SECTION
  2
BLOCKS
  0
BLOCK
  2
-000-_MODEL_SPACE
 70
   64
 10
0
 20
0
 30
0
  0
ENDBLK
  0
BLOCK
  2
-001-_PAPER_SPACE
 70
   64
 10
0
 20
0
 30
0
  0
ENDBLK
  0
BLOCK
  2
-002-_OPEN30
 70
   64
 10
0
 20
0
 30
0
  0
LINE
  8
_0-0_0
  6
CONTINUOUS
 62
    7
 10
-2.5
 20
0.6698729
 11
0
 21
0
  0
LINE
  8
_0-0_0
  6
CONTINUOUS
 62
    7
 10
0
 20
0
 11
-2.5
 21
-0.6698729
  0
LINE
  8
_0-0_0
  6
CONTINUOUS
 62
    7
 10
0
 20
0
 11
-2.5
 21
0
  0
ENDBLK
  0
BLOCK
  2
-003-_NONE
 70
   64
 10
0
 20
0
 30
0
  0
ENDBLK
  0
BLOCK
  2
-004-_D3
 70
   64
 10
0
 20
0
 30
0
  0
LINE
  8
_0-3_STR
  6
CONTINUOUS
 62
    7
 10
1830.3204
 20
4551.7635
 11
1830.3204
 21
3830.086
  0
LINE
  8
_0-3_STR
  6
CONTINUOUS
 62
    7
 10
6205.3204
 20
4551.7635
 11
6205.3204
 21
3830.086
  0
LINE
  8
_0-3_STR
  6
CONTINUOUS
 62
    7
 10
1880.3204
 20
3833.211
 11
6155.3204
 21
3833.211
  0
INSERT
  2
-002-_OPEN30
  8
_0-3_STR
 10
1830.3204
 20
3833.211
 41
20
 42
20
 50
180
  0
INSERT
  2
-002-_OPEN30
  8
_0-3_STR
 10
6205.3204
 20
3833.211
 41
20
 42
20
 50
0
  0
TEXT
  8
_0-3_STR
 62
    7
 10
3933.2579
 20
3858.211
 40
75
 41
1
 50
0
  1
1750
  0
POINT
  8
_0-2_DEFPOINTS
 62
    7
 10
1830.3204
 20
4553.326
  0
POINT
  8
_0-2_DEFPOINTS
 62
    7
 10
6205.3204
 20
4553.326
  0
POINT
  8
_0-2_DEFPOINTS
 62
    7
 10
6205.3204
 20
3833.211
  0
ENDBLK
  0
BLOCK
  2
-005-_D4
 70
   64
 10
0
 20
0
 30
0
  0
LINE
  8
_0-3_STR
  6
CONTINUOUS
 62
    7
 10
1830.3204
 20
4551.7635
 11
1830.3204
 21
4169.735
  0
LINE
  8
_0-3_STR
  6
CONTINUOUS
 62
    7
 10
5080.3204
 20
4551.7635
 11
5080.3204
 21
4169.735
  0
LINE
  8
_0-3_STR
  6
CONTINUOUS
 62
    7
 10
1880.3204
 20
4172.86
 11
5030.3204
 21
4172.86
  0
INSERT
  2
-002-_OPEN30
  8
_0-3_STR
 10
1830.3204
 20
4172.86
 41
20
 42
20
 50
180
  0
INSERT
  2
-002-_OPEN30
  8
_0-3_STR
 10
5080.3204
 20
4172.86
 41
20
 42
20
 50
0
  0
TEXT
  8
_0-3_STR
 62
    7
 10
3370.7579
 20
4197.86
 40
75
 41
1
 50
0
  1
1300
  0
POINT
  8
_0-2_DEFPOINTS
 62
    7
 10
1830.3204
 20
4553.326
  0
POINT
  8
_0-2_DEFPOINTS
 62
    7
 10
5080.3204
 20
4553.326
  0
POINT
  8
_0-2_DEFPOINTS
 62
    7
 10
5080.3204
 20
4172.86
  0
ENDBLK
  0
BLOCK
  2
-006-_D5
 70
   64
 10
0
 20
0
 30
0
  0
LINE
  8
_0-3_STR
  6
CONTINUOUS
 62
    7
 10
1630.3204
 20
1035.6962
 11
1630.3204
 21
693.12526
  0
LINE
  8
_0-3_STR
  6
CONTINUOUS
 62
    7
 10
5080.3204
 20
1035.6962
 11
5080.3204
 21
693.12526
  0
LINE
  8
_0-3_STR
  6
CONTINUOUS
 62
    7
 10
1680.3204
 20
696.25026
 11
5030.3204
 21
696.25026
  0
INSERT
  2
-002-_OPEN30
  8
_0-3_STR
 10
1630.3204
 20
696.25026
 41
20
 42
20
 50
180
  0
INSERT
  2
-002-_OPEN30
  8
_0-3_STR
 10
5080.3204
 20
696.25026
 41
20
 42
20
 50
0
  0
TEXT
  8
_0-3_STR
 62
    7
 10
3270.7579
 20
721.25026
 40
75
 41
1
 50
0
  1
1380
  0
POINT
  8
_0-2_DEFPOINTS
 62
    7
 10
1630.3204
 20
1037.2587
  0
POINT
  8
_0-2_DEFPOINTS
 62
    7
 10
5080.3204
 20
1037.2587
  0
POINT
  8
_0-2_DEFPOINTS
 62
    7
 10
5080.3204
 20
696.25026
  0
ENDBLK
  0
BLOCK
  2
-007-_D6
 70
   64
 10
0
 20
0
 30
0
  0
LINE
  8
_0-3_STR
  6
CONTINUOUS
 62
    7
 10
1630.3204
 20
1035.6962
 11
1630.3204
 21
325.77881
  0
LINE
  8
_0-3_STR
  6
CONTINUOUS
 62
    7
 10
6205.3204
 20
1035.6962
 11
6205.3204
 21
325.77881
  0
LINE
  8
_0-3_STR
  6
CONTINUOUS
 62
    7
 10
1680.3204
 20
328.90381
 11
6155.3204
 21
328.90381
  0
INSERT
  2
-002-_OPEN30
  8
_0-3_STR
 10
1630.3204
 20
328.90381
 41
20
 42
20
 50
180
  0
INSERT
  2
-002-_OPEN30
  8
_0-3_STR
 10
6205.3204
 20
328.90381
 41
20
 42
20
 50
0
  0
TEXT
  8
_0-3_STR
 62
    7
 10
3833.2579
 20
353.90381
 40
75
 41
1
 50
0
  1
1830
  0
POINT
  8
_0-2_DEFPOINTS
 62
    7
 10
1630.3204
 20
1037.2587
  0
POINT
  8
_0-2_DEFPOINTS
 62
    7
 10
6205.3204
 20
1037.2587
  0
POINT
  8
_0-2_DEFPOINTS
 62
    7
 10
6205.3204
 20
328.90381
  0
ENDBLK
  0
BLOCK
  2
-008-_D7
 70
   64
 10
0
 20
0
 30
0
  0
LINE
  8
_0-3_STR
  6
CONTINUOUS
 62
    7
 10
7703.8666
 20
3363.5047
 11
7130.2031
 21
3363.5047
  0
LINE
  8
_0-3_STR
  6
CONTINUOUS
 62
    7
 10
7703.8666
 20
1111.0047
 11
7130.2031
 21
1111.0047
  0
LINE
  8
_0-3_STR
  6
CONTINUOUS
 62
    7
 10
7133.3281
 20
3313.5047
 11
7133.3281
 21
1161.0047
  0
INSERT
  2
-002-_OPEN30
  8
_0-3_STR
 10
7133.3281
 20
3363.5047
 41
20
 42
20
 50
90
  0
INSERT
  2
-002-_OPEN30
  8
_0-3_STR
 10
7133.3281
 20
1111.0047
 41
20
 42
20
 50
270
  0
TEXT
  8
_0-3_STR
 62
    7
 10
7108.3281
 20
2174.6297
 40
75
 41
1
 50
90
  1
901
  0
POINT
  8
_0-2_DEFPOINTS
 62
    7
 10
7705.4291
 20
3363.5047
  0
POINT
  8
_0-2_DEFPOINTS
 62
    7
 10
7705.4291
 20
1111.0047
  0
POINT
  8
_0-2_DEFPOINTS
 62
    7
 10
7133.3281
 20
1111.0047
  0
ENDBLK
  0
BLOCK
  2
-009-_D8
 70
   64
 10
0
 20
0
 30
0
  0
LINE
  8
_0-3_STR
  6
CONTINUOUS
 62
    7
 10
7703.8666
 20
2226.0047
 11
7497.6817
 21
2226.0047
  0
LINE
  8
_0-3_STR
  6
CONTINUOUS
 62
    7
 10
7703.8666
 20
1111.0047
 11
7497.6817
 21
1111.0047
  0
LINE
  8
_0-3_STR
  6
CONTINUOUS
 62
    7
 10
7500.8067
 20
2176.0047
 11
7500.8067
 21
1161.0047
  0
INSERT
  2
-002-_OPEN30
  8
_0-3_STR
 10
7500.8067
 20
2226.0047
 41
20
 42
20
 50
90
  0
INSERT
  2
-002-_OPEN30
  8
_0-3_STR
 10
7500.8067
 20
1111.0047
 41
20
 42
20
 50
270
  0
TEXT
  8
_0-3_STR
 62
    7
 10
7475.8067
 20
1605.8797
 40
75
 41
1
 50
90
  1
446
  0
POINT
  8
_0-2_DEFPOINTS
 62
    7
 10
7705.4291
 20
2226.0047
  0
POINT
  8
_0-2_DEFPOINTS
 62
    7
 10
7705.4291
 20
1111.0047
  0
POINT
  8
_0-2_DEFPOINTS
 62
    7
 10
7500.8067
 20
1111.0047
  0
ENDBLK
  0
BLOCK
  2
-010-_D9
 70
   64
 10
0
 20
0
 30
0
  0
LINE
  8
_0-3_STR
  6
CONTINUOUS
 62
    7
 10
7988.772
 20
1031.2615
 11
7988.772
 21
571.15285
  0
LINE
  8
_0-3_STR
  6
CONTINUOUS
 62
    7
 10
8963.772
 20
1031.2615
 11
8963.772
 21
571.15285
  0
LINE
  8
_0-3_STR
  6
CONTINUOUS
 62
    7
 10
8038.772
 20
574.27785
 11
8913.772
 21
574.27785
  0
INSERT
  2
-002-_OPEN30
  8
_0-3_STR
 10
7988.772
 20
574.27785
 41
20
 42
20
 50
180
  0
INSERT
  2
-002-_OPEN30
  8
_0-3_STR
 10
8963.772
 20
574.27785
 41
20
 42
20
 50
0
  0
TEXT
  8
_0-3_STR
 62
    7
 10
8413.647
 20
599.27785
 40
75
 41
1
 50
0
  1
390
  0
POINT
  8
_0-2_DEFPOINTS
 62
    7
 10
7988.772
 20
1032.824
  0
POINT
  8
_0-2_DEFPOINTS
 62
    7
 10
8963.772
 20
1032.824
  0
POINT
  8
_0-2_DEFPOINTS
 62
    7
 10
8963.772
 20
574.27785
  0
ENDBLK
  0
BLOCK
  2
-011-_D10
 70
   64
 10
0
 20
0
 30
0
  0
LINE
  8
_0-3_STR
  6
CONTINUOUS
 62
    7
 10
7938.772
 20
1029.699
 11
7938.772
 21
214.5058
  0
LINE
  8
_0-3_STR
  6
CONTINUOUS
 62
    7
 10
9013.772
 20
1029.699
 11
9013.772
 21
214.5058
  0
LINE
  8
_0-3_STR
  6
CONTINUOUS
 62
    7
 10
7988.772
 20
217.6308
 11
8963.772
 21
217.6308
  0
INSERT
  2
-002-_OPEN30
  8
_0-3_STR
 10
7938.772
 20
217.6308
 41
20
 42
20
 50
180
  0
INSERT
  2
-002-_OPEN30
  8
_0-3_STR
 10
9013.772
 20
217.6308
 41
20
 42
20
 50
0
  0
TEXT
  8
_0-3_STR
 62
    7
 10
8413.647
 20
242.6308
 40
75
 41
1
 50
0
  1
430
  0
POINT
  8
_0-2_DEFPOINTS
 62
    7
 10
7938.772
 20
1031.2615
  0
POINT
  8
_0-2_DEFPOINTS
 62
    7
 10
9013.772
 20
1031.2615
  0
POINT
  8
_0-2_DEFPOINTS
 62
    7
 10
9013.772
 20
217.6308
  0
ENDBLK
  0
BLOCK
  2
-012-_D11
 70
   64
 10
0
 20
0
 30
0
  0
LINE
  8
_0-3_STR
  6
CONTINUOUS
 62
    7
 10
5521.181
 20
2751.0047
 11
5518.056
 21
2751.0047
  0
LINE
  8
_0-3_STR
  6
CONTINUOUS
 62
    7
 10
5555.0721
 20
1676.0047
 11
5518.056
 21
1676.0047
  0
LINE
  8
_0-3_STR
  6
CONTINUOUS
 62
    7
 10
5521.181
 20
2701.0047
 11
5521.181
 21
1726.0047
  0
INSERT
  2
-002-_OPEN30
  8
_0-3_STR
 10
5521.181
 20
2751.0047
 41
20
 42
20
 50
90
  0
INSERT
  2
-002-_OPEN30
  8
_0-3_STR
 10
5521.181
 20
1676.0047
 41
20
 42
20
 50
270
  0
TEXT
  8
_0-3_STR
 62
    7
 10
5496.181
 20
2176.0047
 40
75
 41
1
 50
90
  1
　
  0
POINT
  8
_0-2_DEFPOINTS
 62
    7
 10
5522.7435
 20
2751.0047
  0
POINT
  8
_0-2_DEFPOINTS
 62
    7
 10
5556.6346
 20
1676.0047
  0
POINT
  8
_0-2_DEFPOINTS
 62
    7
 10
5521.181
 20
1676.0047
  0
ENDBLK
  0
BLOCK
  2
-013-_D12
 70
   64
 10
0
 20
0
 30
0
  0
LINE
  8
_0-3_STR
  6
CONTINUOUS
 62
    7
 10
3130.3204
 20
2827.5672
 11
3130.3204
 21
3537.2035
  0
LINE
  8
_0-3_STR
  6
CONTINUOUS
 62
    7
 10
1630.3204
 20
1585.0672
 11
1630.3204
 21
3537.2035
  0
LINE
  8
_0-3_STR
  6
CONTINUOUS
 62
    7
 10
3080.3204
 20
3534.0785
 11
1680.3204
 21
3534.0785
  0
INSERT
  2
-002-_OPEN30
  8
_0-3_STR
 10
3130.3204
 20
3534.0785
 41
20
 42
20
 50
0
  0
INSERT
  2
-002-_OPEN30
  8
_0-3_STR
 10
1630.3204
 20
3534.0785
 41
20
 42
20
 50
180
  0
TEXT
  8
_0-3_STR
 62
    7
 10
2317.6954
 20
3559.0785
 40
75
 41
1
 50
0
  1
600
  0
POINT
  8
_0-2_DEFPOINTS
 62
    7
 10
3130.3204
 20
2826.0047
  0
POINT
  8
_0-2_DEFPOINTS
 62
    7
 10
1630.3204
 20
1583.5047
  0
POINT
  8
_0-2_DEFPOINTS
 62
    7
 10
1630.3204
 20
3534.0785
  0
ENDBLK
  0
BLOCK
  2
-014-_D13
 70
   64
 10
0
 20
0
 30
0
  0
LINE
  8
_0-3_STR
  6
CONTINUOUS
 62
    7
 10
1553.7579
 20
1111.0047
 11
1361.4937
 21
1111.0047
  0
LINE
  8
_0-3_STR
  6
CONTINUOUS
 62
    7
 10
1553.7579
 20
1508.5047
 11
1361.4937
 21
1508.5047
  0
LINE
  8
_0-3_STR
  6
CONTINUOUS
 62
    7
 10
1364.6187
 20
1161.0047
 11
1364.6187
 21
1458.5047
  0
INSERT
  2
-002-_OPEN30
  8
_0-3_STR
 10
1364.6187
 20
1111.0047
 41
20
 42
20
 50
270
  0
INSERT
  2
-002-_OPEN30
  8
_0-3_STR
 10
1364.6187
 20
1508.5047
 41
20
 42
20
 50
90
  0
TEXT
  8
_0-3_STR
 62
    7
 10
1339.6187
 20
1247.1297
 40
75
 41
1
 50
90
  1
159
  0
POINT
  8
_0-2_DEFPOINTS
 62
    7
 10
1555.3204
 20
1111.0047
  0
POINT
  8
_0-2_DEFPOINTS
 62
    7
 10
1555.3204
 20
1508.5047
  0
POINT
  8
_0-2_DEFPOINTS
 62
    7
 10
1364.6187
 20
1508.5047
  0
ENDBLK
  0
BLOCK
  2
-015-_D14
 70
   64
 10
0
 20
0
 30
0
  0
LINE
  8
_0-3_STR
  6
CONTINUOUS
 62
    7
 10
1553.7579
 20
1508.5047
 11
1361.4937
 21
1508.5047
  0
LINE
  8
_0-3_STR
  6
CONTINUOUS
 62
    7
 10
1553.7579
 20
1563.5047
 11
1361.4937
 21
1563.5047
  0
LINE
  8
_0-3_STR
  6
CONTINUOUS
 62
    7
 10
1364.6187
 20
1458.5047
 11
1364.6187
 21
1408.5047
  0
LINE
  8
_0-3_STR
  6
CONTINUOUS
 62
    7
 10
1364.6187
 20
1613.5047
 11
1364.6187
 21
1663.5047
  0
LINE
  8
_0-3_STR
  6
CONTINUOUS
 62
    7
 10
1364.6187
 20
1848.5047
 11
1364.6187
 21
1563.5047
  0
TEXT
  8
_0-3_STR
 62
    7
 10
1339.6187
 20
1720.3172
 40
75
 41
1
 50
90
  1
22
  0
LINE
  8
_0-3_STR
  6
CONTINUOUS
 62
    7
 10
1364.6187
 20
1508.5047
 11
1364.6187
 21
1563.5047
  0
LINE
  8
_0-3_STR
  6
CONTINUOUS
 62
    7
 10
1364.6187
 20
1508.5047
 11
1364.6187
 21
1563.5047
  0
INSERT
  2
-002-_OPEN30
  8
_0-3_STR
 10
1364.6187
 20
1508.5047
 41
20
 42
20
 50
90
  0
INSERT
  2
-002-_OPEN30
  8
_0-3_STR
 10
1364.6187
 20
1563.5047
 41
20
 42
20
 50
270
  0
POINT
  8
_0-2_DEFPOINTS
 62
    7
 10
1555.3204
 20
1508.5047
  0
POINT
  8
_0-2_DEFPOINTS
 62
    7
 10
1555.3204
 20
1563.5047
  0
POINT
  8
_0-2_DEFPOINTS
 62
    7
 10
1364.6187
 20
1563.5047
  0
ENDBLK
  0
BLOCK
  2
-016-_D15
 70
   64
 10
0
 20
0
 30
0
  0
LINE
  8
_0-3_STR
  6
CONTINUOUS
 62
    7
 10
7801.272
 20
3421.0499
 11
7801.272
 21
3735.1281
  0
LINE
  8
_0-3_STR
  6
CONTINUOUS
 62
    7
 10
9151.272
 20
3421.0499
 11
9151.272
 21
3735.1281
  0
LINE
  8
_0-3_STR
  6
CONTINUOUS
 62
    7
 10
7851.272
 20
3732.0031
 11
9101.272
 21
3732.0031
  0
INSERT
  2
-002-_OPEN30
  8
_0-3_STR
 10
7801.272
 20
3732.0031
 41
20
 42
20
 50
180
  0
INSERT
  2
-002-_OPEN30
  8
_0-3_STR
 10
9151.272
 20
3732.0031
 41
20
 42
20
 50
0
  0
TEXT
  8
_0-3_STR
 62
    7
 10
8413.647
 20
3757.0031
 40
75
 41
1
 50
0
  1
540
  0
POINT
  8
_0-2_DEFPOINTS
 62
    7
 10
7801.272
 20
3419.4874
  0
POINT
  8
_0-2_DEFPOINTS
 62
    7
 10
9151.272
 20
3419.4874
  0
POINT
  8
_0-2_DEFPOINTS
 62
    7
 10
9151.272
 20
3732.0031
  0
ENDBLK
  0
BLOCK
  2
-017-_D16
 70
   64
 10
0
 20
0
 30
0
  0
LINE
  8
_0-3_STR
  6
CONTINUOUS
 62
    7
 10
9217.4446
 20
1508.5047
 11
9556.2403
 21
1508.5047
  0
LINE
  8
_0-3_STR
  6
CONTINUOUS
 62
    7
 10
9217.4446
 20
1111.0047
 11
9556.2403
 21
1111.0047
  0
LINE
  8
_0-3_STR
  6
CONTINUOUS
 62
    7
 10
9553.1153
 20
1458.5047
 11
9553.1153
 21
1161.0047
  0
INSERT
  2
-002-_OPEN30
  8
_0-3_STR
 10
9553.1153
 20
1508.5047
 41
20
 42
20
 50
90
  0
INSERT
  2
-002-_OPEN30
  8
_0-3_STR
 10
9553.1153
 20
1111.0047
 41
20
 42
20
 50
270
  0
TEXT
  8
_0-3_STR
 62
    7
 10
9528.1153
 20
1247.1297
 40
75
 41
1
 50
90
  1
159
  0
POINT
  8
_0-2_DEFPOINTS
 62
    7
 10
9215.8821
 20
1508.5047
  0
POINT
  8
_0-2_DEFPOINTS
 62
    7
 10
9215.8821
 20
1111.0047
  0
POINT
  8
_0-2_DEFPOINTS
 62
    7
 10
9553.1153
 20
1111.0047
  0
ENDBLK
  0
BLOCK
  2
-018-_D17
 70
   64
 10
0
 20
0
 30
0
  0
LINE
  8
_0-3_STR
  6
CONTINUOUS
 62
    7
 10
9217.4446
 20
1508.5047
 11
9556.2403
 21
1508.5047
  0
LINE
  8
_0-3_STR
  6
CONTINUOUS
 62
    7
 10
9217.4446
 20
1563.5047
 11
9556.2403
 21
1563.5047
  0
LINE
  8
_0-3_STR
  6
CONTINUOUS
 62
    7
 10
9553.1153
 20
1458.5047
 11
9553.1153
 21
1408.5047
  0
LINE
  8
_0-3_STR
  6
CONTINUOUS
 62
    7
 10
9553.1153
 20
1613.5047
 11
9553.1153
 21
1838.5047
  0
LINE
  8
_0-3_STR
  6
CONTINUOUS
 62
    7
 10
9553.1153
 20
1508.5047
 11
9553.1153
 21
1563.5047
  0
INSERT
  2
-002-_OPEN30
  8
_0-3_STR
 10
9553.1153
 20
1508.5047
 41
20
 42
20
 50
90
  0
INSERT
  2
-002-_OPEN30
  8
_0-3_STR
 10
9553.1153
 20
1563.5047
 41
20
 42
20
 50
270
  0
TEXT
  8
_0-3_STR
 62
    7
 10
9528.1153
 20
1710.3172
 40
75
 41
1
 50
90
  1
22
  0
POINT
  8
_0-2_DEFPOINTS
 62
    7
 10
9215.8821
 20
1508.5047
  0
POINT
  8
_0-2_DEFPOINTS
 62
    7
 10
9215.8821
 20
1563.5047
  0
POINT
  8
_0-2_DEFPOINTS
 62
    7
 10
9553.1153
 20
1563.5047
  0
ENDBLK
  0
BLOCK
  2
-019-_D18
 70
   64
 10
0
 20
0
 30
0
  0
LINE
  8
_0-3_STR
  6
CONTINUOUS
 62
    7
 10
9217.4446
 20
1563.5047
 11
9681.2403
 21
1563.5047
  0
LINE
  8
_0-3_STR
  6
CONTINUOUS
 62
    7
 10
9217.4446
 20
3363.5047
 11
9681.2403
 21
3363.5047
  0
LINE
  8
_0-3_STR
  6
CONTINUOUS
 62
    7
 10
9678.1153
 20
1613.5047
 11
9678.1153
 21
3313.5047
  0
INSERT
  2
-002-_OPEN30
  8
_0-3_STR
 10
9678.1153
 20
1563.5047
 41
20
 42
20
 50
270
  0
INSERT
  2
-002-_OPEN30
  8
_0-3_STR
 10
9678.1153
 20
3363.5047
 41
20
 42
20
 50
90
  0
TEXT
  8
_0-3_STR
 62
    7
 10
9653.1153
 20
2400.8797
 40
75
 41
1
 50
90
  1
720
  0
POINT
  8
_0-2_DEFPOINTS
 62
    7
 10
9215.8821
 20
1563.5047
  0
POINT
  8
_0-2_DEFPOINTS
 62
    7
 10
9215.8821
 20
3363.5047
  0
POINT
  8
_0-2_DEFPOINTS
 62
    7
 10
9678.1153
 20
3363.5047
  0
ENDBLK
  0
ENDSEC
  0
SECTION
  2
ENTITIES
  0
LINE
  8
_0-3_STR
  6
CONTINUOUS
 62
    7
 10
2740.9018
 20
1932.2398
 11
4490.9018
 21
1932.2398
  0
LINE
  8
_0-3_STR
  6
CONTINUOUS
 62
    7
 10
3260.9018
 20
2158.2398
 11
4530.9018
 21
2158.2398
  0
LINE
  8
_0-3_STR
  6
CONTINUOUS
 62
    7
 10
3260.9018
 20
2588.2398
 11
4530.9018
 21
2588.2398
  0
LINE
  8
_0-3_STR
  6
CONTINUOUS
 62
    7
 10
4490.9018
 20
2091.2398
 11
4490.9018
 21
1932.2398
  0
LINE
  8
_0-3_STR
  6
CONTINUOUS
 62
    7
 10
2660.9018
 20
2091.2398
 11
2660.9018
 21
1971.2398
  0
LINE
  8
_0-3_STR
  6
CONTINUOUS
 62
    7
 10
2740.9018
 20
2091.2398
 11
2740.9018
 21
1932.2398
  0
LINE
  8
_0-3_STR
  6
CONTINUOUS
 62
    7
 10
2760.9018
 20
2091.2398
 11
2760.9018
 21
1932.2398
  0
LINE
  8
_0-3_STR
  6
CONTINUOUS
 62
    7
 10
2760.9018
 20
2227.2398
 11
2760.9018
 21
2091.2398
  0
LINE
  8
_0-3_STR
  6
CONTINUOUS
 62
    7
 10
4040.9018
 20
2091.2398
 11
4040.9018
 21
1962.2398
  0
LINE
  8
_0-3_STR
  6
CONTINUOUS
 62
    7
 10
3260.9018
 20
2588.2398
 11
3260.9018
 21
2158.2398
  0
LINE
  8
_0-3_STR
  6
CONTINUOUS
 62
    7
 10
3180.9018
 20
2048.2398
 11
3180.9018
 21
2113.2398
  0
LINE
  8
_0-3_STR
  6
CONTINUOUS
 62
    7
 10
3150.9018
 20
2113.2398
 11
3150.9018
 21
2143.2398
  0
LINE
  8
_0-3_STR
  6
CONTINUOUS
 62
    7
 10
2820.9018
 20
2227.2398
 11
2820.9018
 21
2113.2398
  0
LINE
  8
_0-3_STR
  6
CONTINUOUS
 62
    7
 10
2820.9018
 20
2227.2398
 11
2760.9018
 21
2227.2398
  0
LINE
  8
_0-3_STR
  6
CONTINUOUS
 62
    7
 10
2938.4018
 20
2113.2398
 11
2938.4018
 21
2143.2398
  0
LINE
  8
_0-3_STR
  6
CONTINUOUS
 62
    7
 10
2988.4018
 20
2143.2398
 11
2988.4018
 21
2638.2398
  0
LINE
  8
_0-3_STR
  6
CONTINUOUS
 62
    7
 10
3100.9018
 20
2143.2398
 11
3150.9018
 21
2143.2398
  0
LINE
  8
_0-3_STR
  6
CONTINUOUS
 62
    7
 10
3100.9018
 20
2143.2398
 11
3100.9018
 21
2638.2398
  0
LINE
  8
_0-3_STR
  6
CONTINUOUS
 62
    7
 10
2923.4018
 20
2275.7398
 11
2923.4018
 21
2325.7398
  0
LINE
  8
_0-3_STR
  6
CONTINUOUS
 62
    7
 10
2953.4018
 20
2275.7398
 11
2953.4018
 21
2325.7398
  0
LINE
  8
_0-3_STR
  6
CONTINUOUS
 62
    7
 10
3160.9018
 20
2258.2398
 11
3160.9018
 21
2498.2398
  0
LINE
  8
_0-3_STR
  6
CONTINUOUS
 62
    7
 10
3180.9018
 20
2318.2398
 11
3180.9018
 21
2438.2398
  0
LINE
  8
_0-3_STR
  6
CONTINUOUS
 62
    7
 10
3220.9018
 20
2258.2398
 11
3220.9018
 21
2498.2398
  0
LINE
  8
_0-3_STR
  6
CONTINUOUS
 62
    7
 10
3260.9018
 20
2258.2398
 11
3260.9018
 21
2498.2398
  0
LINE
  8
_0-3_STR
  6
CONTINUOUS
 62
    7
 10
3100.9018
 20
2498.2398
 11
3160.9018
 21
2498.2398
  0
LINE
  8
_0-3_STR
  6
CONTINUOUS
 62
    7
 10
3100.9018
 20
2258.2398
 11
3160.9018
 21
2258.2398
  0
LINE
  8
_0-3_STR
  6
CONTINUOUS
 62
    7
 10
3160.9018
 20
2418.2398
 11
3180.9018
 21
2418.2398
  0
LINE
  8
_0-3_STR
  6
CONTINUOUS
 62
    7
 10
3160.9018
 20
2338.2398
 11
3180.9018
 21
2338.2398
  0
LINE
  8
_0-3_STR
  6
CONTINUOUS
 62
    7
 10
3180.9018
 20
2438.2398
 11
3220.9018
 21
2438.2398
  0
LINE
  8
_0-3_STR
  6
CONTINUOUS
 62
    7
 10
3180.9018
 20
2318.2398
 11
3220.9018
 21
2318.2398
  0
LINE
  8
_0-3_STR
  6
CONTINUOUS
 62
    7
 10
3220.9018
 20
2498.2398
 11
3260.9018
 21
2498.2398
  0
LINE
  8
_0-3_STR
  6
CONTINUOUS
 62
    7
 10
3220.9018
 20
2258.2398
 11
3260.9018
 21
2258.2398
  0
LINE
  8
_0-3_STR
  6
CONTINUOUS
 62
    7
 10
3285.9018
 20
2588.2398
 11
3285.9018
 21
2158.2398
  0
LINE
  8
_0-3_STR
  6
CONTINUOUS
 62
    7
 10
3325.9018
 20
2588.2398
 11
3325.9018
 21
2158.2398
  0
LINE
  8
_0-3_STR
  6
CONTINUOUS
 62
    7
 10
4400.9018
 20
2588.2398
 11
4400.9018
 21
2158.2398
  0
LINE
  8
_0-3_STR
  6
CONTINUOUS
 62
    7
 10
4530.9018
 20
2588.2398
 11
4530.9018
 21
2158.2398
  0
LINE
  8
_0-3_STR
  6
CONTINUOUS
 62
    7
 10
5204.2825
 20
1932.2398
 11
5594.2825
 21
1932.2398
  0
LINE
  8
_0-3_STR
  6
CONTINUOUS
 62
    7
 10
5204.2825
 20
1962.2398
 11
5594.2825
 21
1962.2398
  0
LINE
  8
_0-1_BMK
  6
CENTER2
 62
    1
 10
5399.2825
 20
2904.5978
 11
5399.2825
 21
1882.2398
  0
CIRCLE
  8
_0-3_STR
  6
CONTINUOUS
 62
    7
 10
5399.2825
 20
2378.2398
 40
40
  0
LINE
  8
_0-3_STR
  6
CONTINUOUS
 62
    7
 10
5594.2825
 20
1962.2398
 11
5594.2825
 21
1932.2398
  0
LINE
  8
_0-3_STR
  6
CONTINUOUS
 62
    7
 10
5204.2825
 20
1962.2398
 11
5204.2825
 21
1932.2398
  0
LINE
  8
_0-3_STR
  6
CONTINUOUS
 62
    7
 10
5183.6575
 20
2113.2398
 11
5183.6575
 21
2031.2398
  0
LINE
  8
_0-3_STR
  6
CONTINUOUS
 62
    7
 10
5613.6575
 20
2113.2398
 11
5613.6575
 21
2031.2398
  0
LINE
  8
_0-1_BMK
  6
CENTER2
 62
    1
 10
5338.6575
 20
2015.2398
 11
5458.6575
 21
2015.2398
  0
CIRCLE
  8
_0-3_STR
  6
CONTINUOUS
 62
    7
 10
5399.2825
 20
2378.2398
 40
160
  0
LINE
  8
_0-3_STR
  6
CONTINUOUS
 62
    7
 10
5183.6575
 20
2091.2398
 11
5613.6575
 21
2091.2398
  0
LINE
  8
_0-3_STR
  6
CONTINUOUS
 62
    7
 10
5308.6575
 20
2061.2398
 11
5488.6575
 21
2061.2398
  0
CIRCLE
  8
_0-3_STR
  6
CONTINUOUS
 62
    7
 10
5399.2825
 20
2015.2398
 40
40
  0
LINE
  8
_0-3_STR
  6
CONTINUOUS
 62
    7
 10
5359.2825
 20
2002.2398
 11
5359.2825
 21
2061.2398
  0
LINE
  8
_0-3_STR
  6
CONTINUOUS
 62
    7
 10
5339.2825
 20
2002.2398
 11
5339.2825
 21
2061.2398
  0
LINE
  8
_0-3_STR
  6
CONTINUOUS
 62
    7
 10
5308.6575
 20
2061.2398
 11
5308.6575
 21
2091.2398
  0
LINE
  8
_0-3_STR
  6
CONTINUOUS
 62
    7
 10
5288.6575
 20
2031.2398
 11
5288.6575
 21
2091.2398
  0
LINE
  8
_0-3_STR
  6
CONTINUOUS
 62
    7
 10
5288.6575
 20
2031.2398
 11
5313.6575
 21
2031.2398
  0
LINE
  8
_0-3_STR
  6
CONTINUOUS
 62
    7
 10
5313.6575
 20
2031.2398
 11
5313.6575
 21
2061.2398
  0
LINE
  8
_0-3_STR
  6
CONTINUOUS
 62
    7
 10
5278.6575
 20
2061.2398
 11
5278.6575
 21
2091.2398
  0
LINE
  8
_0-3_STR
  6
CONTINUOUS
 62
    7
 10
5223.6575
 20
2061.2398
 11
5223.6575
 21
2091.2398
  0
LINE
  8
_0-3_STR
  6
CONTINUOUS
 62
    7
 10
5238.6575
 20
2031.2398
 11
5183.6575
 21
2031.2398
  0
LINE
  8
_0-3_STR
  6
CONTINUOUS
 62
    7
 10
5238.6575
 20
2061.2398
 11
5238.6575
 21
2031.2398
  0
LINE
  8
_0-3_STR
  6
CONTINUOUS
 62
    7
 10
5278.6575
 20
2061.2398
 11
5223.6575
 21
2061.2398
  0
LINE
  8
_0-3_STR
  6
CONTINUOUS
 62
    7
 10
5359.2825
 20
2002.2398
 11
5339.2825
 21
2002.2398
  0
LINE
  8
_0-3_STR
  6
CONTINUOUS
 62
    7
 10
5254.2825
 20
1962.2398
 11
5254.2825
 21
2061.2398
  0
LINE
  8
_0-3_STR
  6
CONTINUOUS
 62
    7
 10
5274.2825
 20
1962.2398
 11
5274.2825
 21
2061.2398
  0
LINE
  8
_0-3_STR
  6
CONTINUOUS
 62
    7
 10
5524.2825
 20
1962.2398
 11
5524.2825
 21
2061.2398
  0
LINE
  8
_0-3_STR
  6
CONTINUOUS
 62
    7
 10
5544.2825
 20
1962.2398
 11
5544.2825
 21
2061.2398
  0
LINE
  8
_0-3_STR
  6
CONTINUOUS
 62
    7
 10
5439.2825
 20
2002.2398
 11
5459.2825
 21
2002.2398
  0
LINE
  8
_0-3_STR
  6
CONTINUOUS
 62
    7
 10
5518.6575
 20
2061.2398
 11
5573.6575
 21
2061.2398
  0
LINE
  8
_0-3_STR
  6
CONTINUOUS
 62
    7
 10
5558.6575
 20
2061.2398
 11
5558.6575
 21
2031.2398
  0
LINE
  8
_0-3_STR
  6
CONTINUOUS
 62
    7
 10
5558.6575
 20
2031.2398
 11
5613.6575
 21
2031.2398
  0
LINE
  8
_0-3_STR
  6
CONTINUOUS
 62
    7
 10
5573.6575
 20
2061.2398
 11
5573.6575
 21
2091.2398
  0
LINE
  8
_0-3_STR
  6
CONTINUOUS
 62
    7
 10
5518.6575
 20
2061.2398
 11
5518.6575
 21
2091.2398
  0
LINE
  8
_0-3_STR
  6
CONTINUOUS
 62
    7
 10
5483.6575
 20
2031.2398
 11
5483.6575
 21
2061.2398
  0
LINE
  8
_0-3_STR
  6
CONTINUOUS
 62
    7
 10
5508.6575
 20
2031.2398
 11
5483.6575
 21
2031.2398
  0
LINE
  8
_0-3_STR
  6
CONTINUOUS
 62
    7
 10
5508.6575
 20
2031.2398
 11
5508.6575
 21
2091.2398
  0
LINE
  8
_0-3_STR
  6
CONTINUOUS
 62
    7
 10
5488.6575
 20
2061.2398
 11
5488.6575
 21
2091.2398
  0
LINE
  8
_0-3_STR
  6
CONTINUOUS
 62
    7
 10
5459.2825
 20
2002.2398
 11
5459.2825
 21
2061.2398
  0
LINE
  8
_0-3_STR
  6
CONTINUOUS
 62
    7
 10
5439.2825
 20
2002.2398
 11
5439.2825
 21
2061.2398
  0
LINE
  8
_0-3_STR
  6
CONTINUOUS
 62
    7
 10
5613.6575
 20
2113.2398
 11
5613.6575
 21
2031.2398
  0
LINE
  8
_0-3_STR
  6
CONTINUOUS
 62
    7
 10
5518.6575
 20
2061.2398
 11
5573.6575
 21
2061.2398
  0
LINE
  8
_0-3_STR
  6
CONTINUOUS
 62
    7
 10
5264.2825
 20
2113.2398
 11
5264.2825
 21
2643.2398
  0
LINE
  8
_0-3_STR
  6
CONTINUOUS
 62
    7
 10
5534.2825
 20
2113.2398
 11
5534.2825
 21
2643.2398
  0
LINE
  8
_0-3_STR
  6
CONTINUOUS
 62
    7
 10
5329.2825
 20
2643.2398
 11
5329.2825
 21
2693.2398
  0
LINE
  8
_0-3_STR
  6
CONTINUOUS
 62
    7
 10
5299.2825
 20
2743.2398
 11
5499.2825
 21
2743.2398
  0
LINE
  8
_0-3_STR
  6
CONTINUOUS
 62
    7
 10
5299.2825
 20
2743.2398
 11
5299.2825
 21
2693.2398
  0
LINE
  8
_0-3_STR
  6
CONTINUOUS
 62
    7
 10
5499.2825
 20
2743.2398
 11
5499.2825
 21
2693.2398
  0
LINE
  8
_0-3_STR
  6
CONTINUOUS
 62
    7
 10
5469.2825
 20
2643.2398
 11
5469.2825
 21
2693.2398
  0
CIRCLE
  8
_0-3_STR
  6
CONTINUOUS
 62
    7
 10
5349.2825
 20
2823.2398
 40
10
  0
CIRCLE
  8
_0-3_STR
  6
CONTINUOUS
 62
    7
 10
5449.2825
 20
2823.2398
 40
10
  0
LINE
  8
_0-3_STR
  6
CONTINUOUS
 62
    7
 10
2740.9018
 20
2091.2398
 11
2660.9018
 21
2091.2398
  0
LINE
  8
_0-3_STR
  6
CONTINUOUS
 62
    7
 10
4530.9018
 20
3338.6667
 11
4530.9018
 21
3768.6667
  0
LINE
  8
_0-1_BMK
  6
CENTER2
 62
    1
 10
2605.3414
 20
3553.6667
 11
4608.3759
 21
3553.6667
  0
LINE
  8
_0-3_STR
  6
CONTINUOUS
 62
    7
 10
2740.9018
 20
3768.6667
 11
2843.4018
 21
3768.6667
  0
LINE
  8
_0-3_STR
  6
CONTINUOUS
 62
    7
 10
2740.9018
 20
3338.6667
 11
2843.4018
 21
3338.6667
  0
LINE
  8
_0-3_STR
  6
CONTINUOUS
 62
    7
 10
4490.9018
 20
3363.6667
 11
4490.9018
 21
3743.6667
  0
LINE
  8
_0-3_STR
  6
CONTINUOUS
 62
    7
 10
2740.9018
 20
3338.6667
 11
2740.9018
 21
3768.6667
  0
LINE
  8
_0-3_STR
  6
CONTINUOUS
 62
    7
 10
4040.9018
 20
3363.6667
 11
4040.9018
 21
3743.6667
  0
LINE
  8
_0-3_STR
  6
CONTINUOUS
 62
    7
 10
2660.9018
 20
3504.8002
 11
2660.9018
 21
3602.5331
  0
LINE
  8
_0-1_BMK
  6
CENTER2
 62
    1
 10
2790.9018
 20
2289.1501
 11
2790.9018
 21
2036.2284
  0
LINE
  8
_0-1_BMK
  6
CENTER2
 62
    1
 10
2790.9018
 20
3353.6667
 11
2790.9018
 21
3393.6667
  0
LINE
  8
_0-3_STR
  6
CONTINUOUS
 62
    7
 10
2720.9018
 20
3358.6667
 11
2720.9018
 21
3748.6667
  0
LINE
  8
_0-3_STR
  6
CONTINUOUS
 62
    7
 10
2720.9018
 20
3748.6667
 11
2660.9018
 21
3602.5331
  0
LINE
  8
_0-3_STR
  6
CONTINUOUS
 62
    7
 10
2720.9018
 20
3358.6667
 11
2660.9018
 21
3504.8002
  0
LINE
  8
_0-3_STR
  6
CONTINUOUS
 62
    7
 10
2988.4018
 20
3283.6667
 11
2988.4018
 21
3823.6667
  0
LINE
  8
_0-3_STR
  6
CONTINUOUS
 62
    7
 10
3100.9018
 20
3283.6667
 11
3100.9018
 21
3823.6667
  0
LINE
  8
_0-3_STR
  6
CONTINUOUS
 62
    7
 10
3180.9018
 20
3338.6667
 11
3180.9018
 21
3768.6667
  0
LINE
  8
_0-3_STR
  6
CONTINUOUS
 62
    7
 10
2988.4018
 20
3823.6667
 11
3100.9018
 21
3823.6667
  0
LINE
  8
_0-3_STR
  6
CONTINUOUS
 62
    7
 10
3160.9018
 20
3433.6667
 11
3160.9018
 21
3673.6667
  0
LINE
  8
_0-3_STR
  6
CONTINUOUS
 62
    7
 10
3160.9018
 20
3593.6667
 11
3180.9018
 21
3593.6667
  0
LINE
  8
_0-3_STR
  6
CONTINUOUS
 62
    7
 10
3160.9018
 20
3513.6667
 11
3180.9018
 21
3513.6667
  0
LINE
  8
_0-3_STR
  6
CONTINUOUS
 62
    7
 10
3260.9018
 20
3338.6667
 11
3260.9018
 21
3768.6667
  0
LINE
  8
_0-3_STR
  6
CONTINUOUS
 62
    7
 10
3260.9018
 20
3768.6667
 11
4530.9018
 21
3768.6667
  0
LINE
  8
_0-3_STR
  6
CONTINUOUS
 62
    7
 10
3260.9018
 20
3338.6667
 11
4530.9018
 21
3338.6667
  0
LINE
  8
_0-3_STR
  6
CONTINUOUS
 62
    7
 10
3280.9018
 20
3338.6667
 11
3280.9018
 21
3768.6667
  0
LINE
  8
_0-3_STR
  6
CONTINUOUS
 62
    7
 10
3330.9018
 20
3338.6667
 11
3330.9018
 21
3768.6667
  0
LINE
  8
_0-1_BMK
  6
CENTER2
 62
    1
 10
2810.9018
 20
3613.6667
 11
2770.9018
 21
3613.6667
  0
CIRCLE
  8
_0-3_STR
  6
CONTINUOUS
 62
    7
 10
2690.9018
 20
3553.6667
 40
5
  0
LINE
  8
_0-1_BMK
  6
CENTER2
 62
    1
 10
2690.9018
 20
3573.6667
 11
2690.9018
 21
3533.6667
  0
CIRCLE
  8
_0-3_STR
  6
CONTINUOUS
 62
    7
 10
2790.9018
 20
3613.6667
 40
5
  0
LINE
  8
_0-1_BMK
  6
CENTER2
 62
    1
 10
2810.9018
 20
3493.6667
 11
2770.9018
 21
3493.6667
  0
CIRCLE
  8
_0-3_STR
  6
CONTINUOUS
 62
    7
 10
2790.9018
 20
3493.6667
 40
5
  0
CIRCLE
  8
_0-3_STR
  6
CONTINUOUS
 62
    7
 10
2790.9018
 20
3733.6667
 40
5
  0
LINE
  8
_0-1_BMK
  6
CENTER2
 62
    1
 10
2810.9018
 20
3733.6667
 11
2770.9018
 21
3733.6667
  0
CIRCLE
  8
_0-3_STR
  6
CONTINUOUS
 62
    7
 10
2790.9018
 20
3373.6667
 40
5
  0
LINE
  8
_0-1_BMK
  6
CENTER2
 62
    1
 10
2810.9018
 20
3373.6667
 11
2770.9018
 21
3373.6667
  0
LINE
  8
_0-1_BMK
  6
CENTER2
 62
    1
 10
2790.9018
 20
3713.6667
 11
2790.9018
 21
3753.6667
  0
LINE
  8
_0-1_BMK
  6
CENTER2
 62
    1
 10
2790.9018
 20
3593.6667
 11
2790.9018
 21
3633.6667
  0
LINE
  8
_0-1_BMK
  6
CENTER2
 62
    1
 10
2790.9018
 20
3473.6667
 11
2790.9018
 21
3513.6667
  0
LINE
  8
_0-3_STR
  6
CONTINUOUS
 62
    7
 10
3330.9018
 20
3623.6667
 11
4040.9018
 21
3623.6667
  0
LINE
  8
_0-3_STR
  6
CONTINUOUS
 62
    7
 10
3330.9018
 20
3483.6667
 11
4040.9018
 21
3483.6667
  0
LINE
  8
_0-3_STR
  6
CONTINUOUS
 62
    7
 10
3330.9018
 20
3668.6667
 11
4490.9018
 21
3668.6667
  0
LINE
  8
_0-3_STR
  6
CONTINUOUS
 62
    7
 10
3330.9018
 20
3438.6667
 11
4490.9018
 21
3438.6667
  0
LINE
  8
_0-3_STR
  6
CONTINUOUS
 62
    7
 10
3330.9018
 20
3743.6667
 11
4490.9018
 21
3743.6667
  0
LINE
  8
_0-3_STR
  6
CONTINUOUS
 62
    7
 10
3330.9018
 20
3363.6667
 11
4490.9018
 21
3363.6667
  0
LINE
  8
_0-3_STR
  6
CONTINUOUS
 62
    7
 10
3645.9018
 20
3363.6667
 11
3645.9018
 21
3743.6667
  0
LINE
  8
_0-1_BMK
  6
CENTER2
 62
    1
 10
3665.9018
 20
3713.6667
 11
3625.9018
 21
3713.6667
  0
LINE
  8
_0-1_BMK
  6
CENTER2
 62
    1
 10
3665.9018
 20
3593.6667
 11
3625.9018
 21
3593.6667
  0
LINE
  8
_0-1_BMK
  6
CENTER2
 62
    1
 10
3665.9018
 20
3513.6667
 11
3625.9018
 21
3513.6667
  0
LINE
  8
_0-1_BMK
  6
CENTER2
 62
    1
 10
3665.9018
 20
3393.6667
 11
3625.9018
 21
3393.6667
  0
LINE
  8
_0-1_BMK
  6
CENTER2
 62
    1
 10
2522.4885
 20
2378.2398
 11
5749.2825
 21
2378.2398
  0
LINE
  8
_0-3_STR
  6
CONTINUOUS
 62
    7
 10
2720.9018
 20
3748.6667
 11
2740.9018
 21
3748.6667
  0
LINE
  8
_0-3_STR
  6
CONTINUOUS
 62
    7
 10
2720.9018
 20
3358.6667
 11
2740.9018
 21
3358.6667
  0
TEXT
  8
_0-3_STR
 62
    7
 10
3781.2652
 20
2688.3091
 40
75
 41
1
 50
0
  1
MAXφ500
  0
LINE
  8
_0-3_STR
  6
CONTINUOUS
 62
    7
 10
3858.5965
 20
2694.637
 11
4124.5246
 21
2694.637
  0
TEXT
  8
_0-3_STR
 62
    7
 10
2170.3234
 20
3969.9832
 40
150
 41
1
 50
0
  1
3-2-3　　KYT-204WZ
  0
LINE
  8
_0-3_STR
  6
CONTINUOUS
 62
    7
 10
4217.2461
 20
2588.2398
 11
4124.5246
 21
2694.637
  0
LINE
  8
_0-3_STR
  6
CONTINUOUS
 62
    7
 10
2740.9018
 20
2091.2398
 11
4490.9018
 21
2091.2398
  0
LINE
  8
_0-3_STR
  6
CONTINUOUS
 62
    7
 10
3180.9018
 20
2061.2398
 11
4490.9018
 21
2061.2398
  0
LINE
  8
_0-3_STR
  6
CONTINUOUS
 62
    7
 10
2760.9018
 20
1962.2398
 11
4490.9018
 21
1962.2398
  0
LINE
  8
_0-3_STR
  6
CONTINUOUS
 62
    7
 10
2760.9018
 20
2113.2398
 11
3180.9018
 21
2113.2398
  0
LINE
  8
_0-3_STR
  6
CONTINUOUS
 62
    7
 10
2740.9018
 20
2051.2398
 11
2660.9018
 21
2051.2398
  0
LINE
  8
_0-3_STR
  6
CONTINUOUS
 62
    7
 10
2740.9018
 20
1971.2398
 11
2660.9018
 21
1971.2398
  0
LINE
  8
_0-3_STR
  6
CONTINUOUS
 62
    7
 10
2740.9018
 20
2011.2398
 11
2660.9018
 21
2011.2398
  0
LINE
  8
_0-3_STR
  6
CONTINUOUS
 62
    7
 10
2740.9018
 20
2001.2398
 11
2660.9018
 21
2001.2398
  0
LINE
  8
_0-3_STR
  6
CONTINUOUS
 62
    7
 10
2740.9018
 20
2061.2398
 11
2660.9018
 21
2061.2398
  0
LINE
  8
_0-3_STR
  6
CONTINUOUS
 62
    7
 10
2843.4018
 20
2430.7398
 11
2843.4018
 21
2325.7398
  0
LINE
  8
_0-3_STR
  6
CONTINUOUS
 62
    7
 10
2988.4018
 20
2325.7398
 11
2843.4018
 21
2325.7398
  0
LINE
  8
_0-3_STR
  6
CONTINUOUS
 62
    7
 10
2843.4018
 20
2430.7398
 11
2988.4018
 21
2430.7398
  0
LINE
  8
_0-3_STR
  6
CONTINUOUS
 62
    7
 10
5264.2825
 20
2613.2398
 11
5129.2825
 21
2378.2398
  0
LINE
  8
_0-3_STR
  6
CONTINUOUS
 62
    7
 10
5534.2825
 20
2613.2398
 11
5669.2825
 21
2378.2398
  0
LINE
  8
_0-3_STR
  6
CONTINUOUS
 62
    7
 10
3180.9018
 20
3483.6667
 11
3220.9018
 21
3483.6667
  0
LINE
  8
_0-3_STR
  6
CONTINUOUS
 62
    7
 10
3180.9018
 20
3623.6667
 11
3220.9018
 21
3623.6667
  0
LINE
  8
_0-3_STR
  6
CONTINUOUS
 62
    7
 10
3220.9018
 20
3733.6667
 11
3220.9018
 21
3373.6667
  0
LINE
  8
_0-3_STR
  6
CONTINUOUS
 62
    7
 10
3220.9018
 20
3393.6667
 11
3260.9018
 21
3393.6667
  0
LINE
  8
_0-3_STR
  6
CONTINUOUS
 62
    7
 10
3220.9018
 20
3373.6667
 11
3260.9018
 21
3373.6667
  0
LINE
  8
_0-3_STR
  6
CONTINUOUS
 62
    7
 10
3220.9018
 20
3713.6667
 11
3260.9018
 21
3713.6667
  0
LINE
  8
_0-3_STR
  6
CONTINUOUS
 62
    7
 10
3220.9018
 20
3733.6667
 11
3260.9018
 21
3733.6667
  0
LINE
  8
_0-3_STR
  6
CONTINUOUS
 62
    7
 10
2988.4018
 20
3573.6667
 11
2843.4018
 21
3573.6667
  0
LINE
  8
_0-3_STR
  6
CONTINUOUS
 62
    7
 10
2843.4018
 20
3658.6667
 11
2988.4018
 21
3658.6667
  0
LINE
  8
_0-3_STR
  6
CONTINUOUS
 62
    7
 10
2843.4018
 20
3658.6667
 11
2843.4018
 21
3573.6667
  0
LINE
  8
_0-3_STR
  6
CONTINUOUS
 62
    7
 10
2843.4018
 20
3783.6667
 11
2843.4018
 21
3698.6667
  0
LINE
  8
_0-3_STR
  6
CONTINUOUS
 62
    7
 10
2843.4018
 20
3783.6667
 11
2988.4018
 21
3783.6667
  0
LINE
  8
_0-3_STR
  6
CONTINUOUS
 62
    7
 10
2988.4018
 20
3698.6667
 11
2843.4018
 21
3698.6667
  0
LINE
  8
_0-3_STR
  6
CONTINUOUS
 62
    7
 10
3100.9018
 20
3768.6667
 11
3180.9018
 21
3768.6667
  0
LINE
  8
_0-3_STR
  6
CONTINUOUS
 62
    7
 10
2843.4018
 20
3323.6667
 11
2988.4018
 21
3323.6667
  0
LINE
  8
_0-3_STR
  6
CONTINUOUS
 62
    7
 10
2843.4018
 20
3323.6667
 11
2843.4018
 21
3408.6667
  0
LINE
  8
_0-3_STR
  6
CONTINUOUS
 62
    7
 10
2843.4018
 20
3448.6667
 11
2843.4018
 21
3533.6667
  0
LINE
  8
_0-3_STR
  6
CONTINUOUS
 62
    7
 10
2843.4018
 20
3448.6667
 11
2988.4018
 21
3448.6667
  0
LINE
  8
_0-3_STR
  6
CONTINUOUS
 62
    7
 10
2988.4018
 20
3533.6667
 11
2843.4018
 21
3533.6667
  0
LINE
  8
_0-3_STR
  6
CONTINUOUS
 62
    7
 10
2988.4018
 20
3408.6667
 11
2843.4018
 21
3408.6667
  0
LINE
  8
_0-3_STR
  6
CONTINUOUS
 62
    7
 10
2988.4018
 20
3283.6667
 11
3100.9018
 21
3283.6667
  0
LINE
  8
_0-3_STR
  6
CONTINUOUS
 62
    7
 10
3100.9018
 20
3338.6667
 11
3180.9018
 21
3338.6667
  0
LINE
  8
_0-3_STR
  6
CONTINUOUS
 62
    7
 10
2988.4018
 20
3688.6667
 11
3100.9018
 21
3688.6667
  0
LINE
  8
_0-3_STR
  6
CONTINUOUS
 62
    7
 10
2988.4018
 20
3418.6667
 11
3100.9018
 21
3418.6667
  0
LINE
  8
_0-3_STR
  6
CONTINUOUS
 62
    7
 10
3100.9018
 20
3673.6667
 11
3160.9018
 21
3673.6667
  0
LINE
  8
_0-3_STR
  6
CONTINUOUS
 62
    7
 10
3100.9018
 20
3433.6667
 11
3160.9018
 21
3433.6667
  0
LINE
  8
_0-3_STR
  6
CONTINUOUS
 62
    7
 10
3180.9018
 20
2048.2398
 11
2760.9018
 21
2048.2398
  0
LINE
  8
_0-3_STR
  6
CONTINUOUS
 62
    7
 10
2938.4018
 20
2143.2398
 11
2988.4018
 21
2143.2398
  0
LINE
  8
_0-1_BMK
  6
CENTER2
 62
    1
 10
2690.9018
 20
2121.2398
 11
2690.9018
 21
1941.2398
  0
LINE
  8
_0-3_STR
  6
CONTINUOUS
 62
    7
 10
5183.6575
 20
2113.2398
 11
5613.6575
 21
2113.2398
  0
LINE
  8
_0-3_STR
  6
CONTINUOUS
 62
    7
 10
5264.2825
 20
2143.2398
 11
5534.2825
 21
2143.2398
  0
LINE
  8
_0-3_STR
  6
CONTINUOUS
 62
    7
 10
5264.2825
 20
2613.2398
 11
5534.2825
 21
2613.2398
  0
LINE
  8
_0-3_STR
  6
CONTINUOUS
 62
    7
 10
5264.2825
 20
2643.2398
 11
5534.2825
 21
2643.2398
  0
LINE
  8
_0-3_STR
  6
CONTINUOUS
 62
    7
 10
2988.4018
 20
2608.2398
 11
3100.9018
 21
2608.2398
  0
LINE
  8
_0-3_STR
  6
CONTINUOUS
 62
    7
 10
5264.2825
 20
2143.2398
 11
5129.2825
 21
2378.2398
  0
LINE
  8
_0-3_STR
  6
CONTINUOUS
 62
    7
 10
5534.2825
 20
2143.2398
 11
5669.2825
 21
2378.2398
  0
LINE
  8
_0-3_STR
  6
CONTINUOUS
 62
    7
 10
5349.2825
 20
2813.2398
 11
5349.2825
 21
2743.2398
  0
LINE
  8
_0-3_STR
  6
CONTINUOUS
 62
    7
 10
5449.2825
 20
2813.2398
 11
5449.2825
 21
2743.2398
  0
LINE
  8
_0-3_STR
  6
CONTINUOUS
 62
    7
 10
5299.2825
 20
2693.2398
 11
5499.2825
 21
2693.2398
  0
LINE
  8
_0-3_STR
  6
CONTINUOUS
 62
    7
 10
3100.9018
 20
2638.2398
 11
2988.4018
 21
2638.2398
  0
LINE
  8
_0-3_STR
  6
CONTINUOUS
 62
    7
 10
2843.4018
 20
2170.7398
 11
2843.4018
 21
2275.7398
  0
LINE
  8
_0-3_STR
  6
CONTINUOUS
 62
    7
 10
2988.4018
 20
2275.7398
 11
2843.4018
 21
2275.7398
  0
LINE
  8
_0-3_STR
  6
CONTINUOUS
 62
    7
 10
2843.4018
 20
2170.7398
 11
2988.4018
 21
2170.7398
  0
LINE
  8
_0-3_STR
  6
CONTINUOUS
 62
    7
 10
2843.4018
 20
2585.7398
 11
2988.4018
 21
2585.7398
  0
LINE
  8
_0-3_STR
  6
CONTINUOUS
 62
    7
 10
2988.4018
 20
2480.7398
 11
2843.4018
 21
2480.7398
  0
LINE
  8
_0-3_STR
  6
CONTINUOUS
 62
    7
 10
2843.4018
 20
2585.7398
 11
2843.4018
 21
2480.7398
  0
LINE
  8
_0-3_STR
  6
CONTINUOUS
 62
    7
 10
2953.4018
 20
2480.7398
 11
2953.4018
 21
2430.7398
  0
LINE
  8
_0-3_STR
  6
CONTINUOUS
 62
    7
 10
2923.4018
 20
2480.7398
 11
2923.4018
 21
2430.7398
  0
LINE
  8
_0-3_STR
  6
CONTINUOUS
 62
    7
 10
3044.6518
 20
2808.2398
 11
3044.6518
 21
2738.2398
  0
CIRCLE
  8
_0-3_STR
  6
CONTINUOUS
 62
    7
 10
3044.6518
 20
2818.2398
 40
10
  0
LINE
  8
_0-3_STR
  6
CONTINUOUS
 62
    7
 10
3064.6518
 20
2638.2398
 11
3064.6518
 21
2688.2398
  0
LINE
  8
_0-3_STR
  6
CONTINUOUS
 62
    7
 10
3004.6518
 20
2738.2398
 11
3004.6518
 21
2688.2398
  0
LINE
  8
_0-3_STR
  6
CONTINUOUS
 62
    7
 10
3024.6518
 20
2638.2398
 11
3024.6518
 21
2688.2398
  0
LINE
  8
_0-3_STR
  6
CONTINUOUS
 62
    7
 10
3004.6518
 20
2688.2398
 11
3084.6518
 21
2688.2398
  0
LINE
  8
_0-3_STR
  6
CONTINUOUS
 62
    7
 10
3084.6518
 20
2738.2398
 11
3084.6518
 21
2688.2398
  0
LINE
  8
_0-3_STR
  6
CONTINUOUS
 62
    7
 10
3004.6518
 20
2738.2398
 11
3084.6518
 21
2738.2398
  0
TEXT
  8
_0-3_STR
 62
    7
 10
3372.0612
 20
4317.9687
 40
75
 41
1
 50
0
  1
-ベビーモール-
  0
TEXT
  8
_0-3_STR
 62
    7
 10
3072.9187
 20
4157.4105
 40
75
 41
1
 50
0
  1
（寸法の比率は正確です。倍率を合わせて使用してください。）
  0
LINE
  8
_0-3_STR
  6
CONTINUOUS
 62
    7
 10
5695.7515
 20
2113.2398
 11
5881.2698
 21
2113.2398
  0
LINE
  8
_0-3_STR
  6
CONTINUOUS
 62
    7
 10
5695.7515
 20
2833.2398
 11
5881.2698
 21
2833.2398
  0
LINE
  8
_0-3_STR
  6
CONTINUOUS
 62
    7
 10
5880.0198
 20
2133.2398
 11
5880.0198
 21
2813.2398
  0
LINE
  8
_0-3_STR
  6
CONTINUOUS
 62
    7
 10
5695.7515
 20
2091.2398
 11
5831.2698
 21
2091.2398
  0
LINE
  8
_0-3_STR
  6
CONTINUOUS
 62
    7
 10
5695.7515
 20
2113.2398
 11
5831.2698
 21
2113.2398
  0
LINE
  8
_0-3_STR
  6
CONTINUOUS
 62
    7
 10
5830.0198
 20
2071.2398
 11
5830.0198
 21
2051.2398
  0
LINE
  8
_0-3_STR
  6
CONTINUOUS
 62
    7
 10
5830.0198
 20
2133.2398
 11
5830.0198
 21
2223.2398
  0
LINE
  8
_0-3_STR
  6
CONTINUOUS
 62
    7
 10
5830.0198
 20
2091.2398
 11
5830.0198
 21
2113.2398
  0
LINE
  8
_0-3_STR
  6
CONTINUOUS
 62
    7
 10
5695.7515
 20
2091.2398
 11
5831.2698
 21
2091.2398
  0
LINE
  8
_0-3_STR
  6
CONTINUOUS
 62
    7
 10
5695.7515
 20
1932.2398
 11
5831.2698
 21
1932.2398
  0
LINE
  8
_0-3_STR
  6
CONTINUOUS
 62
    7
 10
5830.0198
 20
2071.2398
 11
5830.0198
 21
1952.2398
  0
LINE
  8
_0-3_STR
  6
CONTINUOUS
 62
    7
 10
5129.2825
 20
2856.2578
 11
5129.2825
 21
2981.8891
  0
LINE
  8
_0-3_STR
  6
CONTINUOUS
 62
    7
 10
5669.2825
 20
2856.2578
 11
5669.2825
 21
2981.8891
  0
LINE
  8
_0-3_STR
  6
CONTINUOUS
 62
    7
 10
5149.2825
 20
2980.6391
 11
5649.2825
 21
2980.6391
  0
LINE
  8
_0-3_STR
  6
CONTINUOUS
 62
    7
 10
2630.2768
 20
2091.2398
 11
2553.3711
 21
2091.2398
  0
LINE
  8
_0-3_STR
  6
CONTINUOUS
 62
    7
 10
2630.2768
 20
2113.2398
 11
2553.3711
 21
2113.2398
  0
LINE
  8
_0-3_STR
  6
CONTINUOUS
 62
    7
 10
2554.6211
 20
2071.2398
 11
2554.6211
 21
2051.2398
  0
LINE
  8
_0-3_STR
  6
CONTINUOUS
 62
    7
 10
2554.6211
 20
2133.2398
 11
2554.6211
 21
2153.2398
  0
LINE
  8
_0-3_STR
  6
CONTINUOUS
 62
    7
 10
2554.6211
 20
2227.2398
 11
2554.6211
 21
2113.2398
  0
LINE
  8
_0-3_STR
  6
CONTINUOUS
 62
    7
 10
2554.6211
 20
2091.2398
 11
2554.6211
 21
2113.2398
  0
LINE
  8
_0-3_STR
  6
CONTINUOUS
 62
    7
 10
2554.6211
 20
2091.2398
 11
2554.6211
 21
2113.2398
  0
LINE
  8
_0-3_STR
  6
CONTINUOUS
 62
    7
 10
2630.2768
 20
1932.2398
 11
2553.3711
 21
1932.2398
  0
LINE
  8
_0-3_STR
  6
CONTINUOUS
 62
    7
 10
2630.2768
 20
2091.2398
 11
2553.3711
 21
2091.2398
  0
LINE
  8
_0-3_STR
  6
CONTINUOUS
 62
    7
 10
2554.6211
 20
1952.2398
 11
2554.6211
 21
2071.2398
  0
LINE
  8
_0-3_STR
  6
CONTINUOUS
 62
    7
 10
3260.9018
 20
2618.8648
 11
3260.9018
 21
2902.7193
  0
LINE
  8
_0-3_STR
  6
CONTINUOUS
 62
    7
 10
2660.9018
 20
2121.8648
 11
2660.9018
 21
2902.7193
  0
LINE
  8
_0-3_STR
  6
CONTINUOUS
 62
    7
 10
3240.9018
 20
2901.4693
 11
2680.9018
 21
2901.4693
  0
LINE
  8
_0-3_STR
  6
CONTINUOUS
 62
    7
 10
4217.2461
 20
2588.2398
 11
4215.9961
 21
2588.2398
  0
LINE
  8
_0-3_STR
  6
CONTINUOUS
 62
    7
 10
4230.8025
 20
2158.2398
 11
4215.9961
 21
2158.2398
  0
LINE
  8
_0-3_STR
  6
CONTINUOUS
 62
    7
 10
4217.2461
 20
2568.2398
 11
4217.2461
 21
2178.2398
  0
LINE
  8
_0-3_STR
  6
CONTINUOUS
 62
    7
 10
5184.2825
 20
1899.7175
 11
5184.2825
 21
1573.6402
  0
LINE
  8
_0-3_STR
  6
CONTINUOUS
 62
    7
 10
5614.2825
 20
1899.7175
 11
5614.2825
 21
1573.6402
  0
LINE
  8
_0-3_STR
  6
CONTINUOUS
 62
    7
 10
5204.2825
 20
1574.8902
 11
5594.2825
 21
1574.8902
  0
LINE
  8
_0-3_STR
  6
CONTINUOUS
 62
    7
 10
5204.2825
 20
1900.3425
 11
5204.2825
 21
1716.299
  0
LINE
  8
_0-3_STR
  6
CONTINUOUS
 62
    7
 10
5594.2825
 20
1900.3425
 11
5594.2825
 21
1716.299
  0
LINE
  8
_0-3_STR
  6
CONTINUOUS
 62
    7
 10
5224.2825
 20
1717.549
 11
5574.2825
 21
1717.549
  0
LINE
  8
_0-3_STR
  6
CONTINUOUS
 62
    7
 10
5090.3203
 20
2378.2398
 11
5007.8463
 21
2378.2398
  0
LINE
  8
_0-3_STR
  6
CONTINUOUS
 62
    7
 10
5090.3203
 20
1932.2398
 11
5007.8463
 21
1932.2398
  0
LINE
  8
_0-3_STR
  6
CONTINUOUS
 62
    7
 10
5009.0963
 20
2358.2398
 11
5009.0963
 21
1952.2398
  0
LINE
  8
_0-3_STR
  6
CONTINUOUS
 62
    7
 10
5090.3203
 20
2833.2398
 11
4860.8549
 21
2833.2398
  0
LINE
  8
_0-3_STR
  6
CONTINUOUS
 62
    7
 10
5090.3203
 20
1932.2398
 11
4860.8549
 21
1932.2398
  0
LINE
  8
_0-3_STR
  6
CONTINUOUS
 62
    7
 10
4862.1049
 20
2813.2398
 11
4862.1049
 21
1952.2398
  0
LINE
  8
_0-3_STR
  6
CONTINUOUS
 62
    7
 10
2660.9018
 20
1902.1163
 11
2660.9018
 21
1618.1494
  0
LINE
  8
_0-3_STR
  6
CONTINUOUS
 62
    7
 10
4490.9018
 20
1902.1163
 11
4490.9018
 21
1618.1494
  0
LINE
  8
_0-3_STR
  6
CONTINUOUS
 62
    7
 10
2680.9018
 20
1619.3994
 11
4470.9018
 21
1619.3994
  0
LINE
  8
_0-3_STR
  6
CONTINUOUS
 62
    7
 10
2660.9018
 20
1902.1163
 11
2660.9018
 21
1765.088
  0
LINE
  8
_0-3_STR
  6
CONTINUOUS
 62
    7
 10
4040.9018
 20
1902.1163
 11
4040.9018
 21
1765.088
  0
LINE
  8
_0-3_STR
  6
CONTINUOUS
 62
    7
 10
2680.9018
 20
1766.338
 11
4020.9018
 21
1766.338
  0
LINE
  8
_0-3_STR
  6
CONTINUOUS
 62
    7
 10
2740.9018
 20
3308.5433
 11
2740.9018
 21
3155.7319
  0
LINE
  8
_0-3_STR
  6
CONTINUOUS
 62
    7
 10
4040.9018
 20
3308.5433
 11
4040.9018
 21
3155.7319
  0
LINE
  8
_0-3_STR
  6
CONTINUOUS
 62
    7
 10
2760.9018
 20
3156.9819
 11
4020.9018
 21
3156.9819
  0
LINE
  8
_0-3_STR
  6
CONTINUOUS
 62
    7
 10
2740.9018
 20
3308.5433
 11
2740.9018
 21
3019.8723
  0
LINE
  8
_0-3_STR
  6
CONTINUOUS
 62
    7
 10
4490.9018
 20
3308.5433
 11
4490.9018
 21
3019.8723
  0
LINE
  8
_0-3_STR
  6
CONTINUOUS
 62
    7
 10
2760.9018
 20
3021.1223
 11
4470.9018
 21
3021.1223
  0
TEXT
  8
_0-3_STR
 62
    7
 10
3517.6643
 20
3008.6223
 40
75
 41
1
 50
0
  1
1750
  0
LINE
  8
_0-3_STR
  6
CONTINUOUS
 62
    7
 10
4470.9018
 20
3026.4812
 11
4490.9018
 21
3021.1223
  0
LINE
  8
_0-3_STR
  6
CONTINUOUS
 62
    7
 10
4490.9018
 20
3021.1223
 11
4470.9018
 21
3015.7633
  0
LINE
  8
_0-3_STR
  6
CONTINUOUS
 62
    7
 10
4490.9018
 20
3021.1223
 11
4470.9018
 21
3021.1223
  0
LINE
  8
_0-3_STR
  6
CONTINUOUS
 62
    7
 10
2760.9018
 20
3015.7633
 11
2740.9018
 21
3021.1223
  0
LINE
  8
_0-3_STR
  6
CONTINUOUS
 62
    7
 10
2740.9018
 20
3021.1223
 11
2760.9018
 21
3026.4812
  0
LINE
  8
_0-3_STR
  6
CONTINUOUS
 62
    7
 10
2740.9018
 20
3021.1223
 11
2760.9018
 21
3021.1223
  0
LINE
  8
_0-3_STR
  6
CONTINUOUS
 62
    7
 10
4020.9018
 20
3162.3409
 11
4040.9018
 21
3156.9819
  0
LINE
  8
_0-3_STR
  6
CONTINUOUS
 62
    7
 10
4040.9018
 20
3156.9819
 11
4020.9018
 21
3151.6229
  0
LINE
  8
_0-3_STR
  6
CONTINUOUS
 62
    7
 10
4040.9018
 20
3156.9819
 11
4020.9018
 21
3156.9819
  0
LINE
  8
_0-3_STR
  6
CONTINUOUS
 62
    7
 10
2760.9018
 20
3151.6229
 11
2740.9018
 21
3156.9819
  0
LINE
  8
_0-3_STR
  6
CONTINUOUS
 62
    7
 10
2740.9018
 20
3156.9819
 11
2760.9018
 21
3162.3409
  0
LINE
  8
_0-3_STR
  6
CONTINUOUS
 62
    7
 10
2740.9018
 20
3156.9819
 11
2760.9018
 21
3156.9819
  0
LINE
  8
_0-3_STR
  6
CONTINUOUS
 62
    7
 10
4020.9018
 20
1771.6969
 11
4040.9018
 21
1766.338
  0
LINE
  8
_0-3_STR
  6
CONTINUOUS
 62
    7
 10
4040.9018
 20
1766.338
 11
4020.9018
 21
1760.979
  0
LINE
  8
_0-3_STR
  6
CONTINUOUS
 62
    7
 10
4040.9018
 20
1766.338
 11
4020.9018
 21
1766.338
  0
LINE
  8
_0-3_STR
  6
CONTINUOUS
 62
    7
 10
2680.9018
 20
1760.979
 11
2660.9018
 21
1766.338
  0
LINE
  8
_0-3_STR
  6
CONTINUOUS
 62
    7
 10
2660.9018
 20
1766.338
 11
2680.9018
 21
1771.6969
  0
LINE
  8
_0-3_STR
  6
CONTINUOUS
 62
    7
 10
2660.9018
 20
1766.338
 11
2680.9018
 21
1766.338
  0
TEXT
  8
_0-3_STR
 62
    7
 10
3477.6643
 20
1606.8994
 40
75
 41
1
 50
0
  1
1830
  0
LINE
  8
_0-3_STR
  6
CONTINUOUS
 62
    7
 10
4470.9018
 20
1624.7584
 11
4490.9018
 21
1619.3994
  0
LINE
  8
_0-3_STR
  6
CONTINUOUS
 62
    7
 10
4490.9018
 20
1619.3994
 11
4470.9018
 21
1614.0404
  0
LINE
  8
_0-3_STR
  6
CONTINUOUS
 62
    7
 10
4490.9018
 20
1619.3994
 11
4470.9018
 21
1619.3994
  0
LINE
  8
_0-3_STR
  6
CONTINUOUS
 62
    7
 10
2680.9018
 20
1614.0404
 11
2660.9018
 21
1619.3994
  0
LINE
  8
_0-3_STR
  6
CONTINUOUS
 62
    7
 10
2660.9018
 20
1619.3994
 11
2680.9018
 21
1624.7584
  0
LINE
  8
_0-3_STR
  6
CONTINUOUS
 62
    7
 10
2660.9018
 20
1619.3994
 11
2680.9018
 21
1619.3994
  0
TEXT
  8
_0-3_STR
 62
    7
 10
4874.6049
 20
2312.6648
 40
75
 41
1
 50
90
  1
901
  0
LINE
  8
_0-3_STR
  6
CONTINUOUS
 62
    7
 10
4867.4639
 20
1952.2398
 11
4862.1049
 21
1932.2398
  0
LINE
  8
_0-3_STR
  6
CONTINUOUS
 62
    7
 10
4862.1049
 20
1932.2398
 11
4856.7459
 21
1952.2398
  0
LINE
  8
_0-3_STR
  6
CONTINUOUS
 62
    7
 10
4862.1049
 20
1932.2398
 11
4862.1049
 21
1952.2398
  0
LINE
  8
_0-3_STR
  6
CONTINUOUS
 62
    7
 10
4856.7459
 20
2813.2398
 11
4862.1049
 21
2833.2398
  0
LINE
  8
_0-3_STR
  6
CONTINUOUS
 62
    7
 10
4862.1049
 20
2833.2398
 11
4867.4639
 21
2813.2398
  0
LINE
  8
_0-3_STR
  6
CONTINUOUS
 62
    7
 10
4862.1049
 20
2833.2398
 11
4862.1049
 21
2813.2398
  0
TEXT
  8
_0-3_STR
 62
    7
 10
5021.5963
 20
2077.6648
 40
75
 41
1
 50
90
  1
446
  0
LINE
  8
_0-3_STR
  6
CONTINUOUS
 62
    7
 10
5014.4553
 20
1952.2398
 11
5009.0963
 21
1932.2398
  0
LINE
  8
_0-3_STR
  6
CONTINUOUS
 62
    7
 10
5009.0963
 20
1932.2398
 11
5003.7374
 21
1952.2398
  0
LINE
  8
_0-3_STR
  6
CONTINUOUS
 62
    7
 10
5009.0963
 20
1932.2398
 11
5009.0963
 21
1952.2398
  0
LINE
  8
_0-3_STR
  6
CONTINUOUS
 62
    7
 10
5003.7374
 20
2358.2398
 11
5009.0963
 21
2378.2398
  0
LINE
  8
_0-3_STR
  6
CONTINUOUS
 62
    7
 10
5009.0963
 20
2378.2398
 11
5014.4553
 21
2358.2398
  0
LINE
  8
_0-3_STR
  6
CONTINUOUS
 62
    7
 10
5009.0963
 20
2378.2398
 11
5009.0963
 21
2358.2398
  0
TEXT
  8
_0-3_STR
 62
    7
 10
5324.2075
 20
1705.049
 40
75
 41
1
 50
0
  1
390
  0
LINE
  8
_0-3_STR
  6
CONTINUOUS
 62
    7
 10
5574.2825
 20
1722.908
 11
5594.2825
 21
1717.549
  0
LINE
  8
_0-3_STR
  6
CONTINUOUS
 62
    7
 10
5594.2825
 20
1717.549
 11
5574.2825
 21
1712.19
  0
LINE
  8
_0-3_STR
  6
CONTINUOUS
 62
    7
 10
5594.2825
 20
1717.549
 11
5574.2825
 21
1717.549
  0
LINE
  8
_0-3_STR
  6
CONTINUOUS
 62
    7
 10
5224.2825
 20
1712.19
 11
5204.2825
 21
1717.549
  0
LINE
  8
_0-3_STR
  6
CONTINUOUS
 62
    7
 10
5204.2825
 20
1717.549
 11
5224.2825
 21
1722.908
  0
LINE
  8
_0-3_STR
  6
CONTINUOUS
 62
    7
 10
5204.2825
 20
1717.549
 11
5224.2825
 21
1717.549
  0
TEXT
  8
_0-3_STR
 62
    7
 10
5324.2075
 20
1562.3902
 40
75
 41
1
 50
0
  1
430
  0
LINE
  8
_0-3_STR
  6
CONTINUOUS
 62
    7
 10
5594.2825
 20
1580.2492
 11
5614.2825
 21
1574.8902
  0
LINE
  8
_0-3_STR
  6
CONTINUOUS
 62
    7
 10
5614.2825
 20
1574.8902
 11
5594.2825
 21
1569.5312
  0
LINE
  8
_0-3_STR
  6
CONTINUOUS
 62
    7
 10
5614.2825
 20
1574.8902
 11
5594.2825
 21
1574.8902
  0
LINE
  8
_0-3_STR
  6
CONTINUOUS
 62
    7
 10
5204.2825
 20
1569.5312
 11
5184.2825
 21
1574.8902
  0
LINE
  8
_0-3_STR
  6
CONTINUOUS
 62
    7
 10
5184.2825
 20
1574.8902
 11
5204.2825
 21
1580.2492
  0
LINE
  8
_0-3_STR
  6
CONTINUOUS
 62
    7
 10
5184.2825
 20
1574.8902
 11
5204.2825
 21
1574.8902
  0
TEXT
  8
_0-3_STR
 62
    7
 10
4229.7461
 20
2337.7398
 40
75
 41
1
 50
90
  1
　
  0
LINE
  8
_0-3_STR
  6
CONTINUOUS
 62
    7
 10
4222.605
 20
2178.2398
 11
4217.2461
 21
2158.2398
  0
LINE
  8
_0-3_STR
  6
CONTINUOUS
 62
    7
 10
4217.2461
 20
2158.2398
 11
4211.8871
 21
2178.2398
  0
LINE
  8
_0-3_STR
  6
CONTINUOUS
 62
    7
 10
4217.2461
 20
2158.2398
 11
4217.2461
 21
2178.2398
  0
LINE
  8
_0-3_STR
  6
CONTINUOUS
 62
    7
 10
4211.8871
 20
2568.2398
 11
4217.2461
 21
2588.2398
  0
LINE
  8
_0-3_STR
  6
CONTINUOUS
 62
    7
 10
4217.2461
 20
2588.2398
 11
4222.605
 21
2568.2398
  0
LINE
  8
_0-3_STR
  6
CONTINUOUS
 62
    7
 10
4217.2461
 20
2588.2398
 11
4217.2461
 21
2568.2398
  0
TEXT
  8
_0-3_STR
 62
    7
 10
2888.3268
 20
2888.9693
 40
75
 41
1
 50
0
  1
600
  0
LINE
  8
_0-3_STR
  6
CONTINUOUS
 62
    7
 10
2680.9018
 20
2896.1103
 11
2660.9018
 21
2901.4693
  0
LINE
  8
_0-3_STR
  6
CONTINUOUS
 62
    7
 10
2660.9018
 20
2901.4693
 11
2680.9018
 21
2906.8282
  0
LINE
  8
_0-3_STR
  6
CONTINUOUS
 62
    7
 10
2660.9018
 20
2901.4693
 11
2680.9018
 21
2901.4693
  0
LINE
  8
_0-3_STR
  6
CONTINUOUS
 62
    7
 10
3240.9018
 20
2906.8282
 11
3260.9018
 21
2901.4693
  0
LINE
  8
_0-3_STR
  6
CONTINUOUS
 62
    7
 10
3260.9018
 20
2901.4693
 11
3240.9018
 21
2896.1103
  0
LINE
  8
_0-3_STR
  6
CONTINUOUS
 62
    7
 10
3260.9018
 20
2901.4693
 11
3240.9018
 21
2901.4693
  0
TEXT
  8
_0-3_STR
 62
    7
 10
2567.1211
 20
1939.1648
 40
75
 41
1
 50
90
  1
159
  0
LINE
  8
_0-3_STR
  6
CONTINUOUS
 62
    7
 10
2549.2622
 20
2071.2398
 11
2554.6211
 21
2091.2398
  0
LINE
  8
_0-3_STR
  6
CONTINUOUS
 62
    7
 10
2554.6211
 20
2091.2398
 11
2559.9801
 21
2071.2398
  0
LINE
  8
_0-3_STR
  6
CONTINUOUS
 62
    7
 10
2554.6211
 20
2091.2398
 11
2554.6211
 21
2071.2398
  0
LINE
  8
_0-3_STR
  6
CONTINUOUS
 62
    7
 10
2559.9801
 20
1952.2398
 11
2554.6211
 21
1932.2398
  0
LINE
  8
_0-3_STR
  6
CONTINUOUS
 62
    7
 10
2554.6211
 20
1932.2398
 11
2549.2622
 21
1952.2398
  0
LINE
  8
_0-3_STR
  6
CONTINUOUS
 62
    7
 10
2554.6211
 20
1932.2398
 11
2554.6211
 21
1952.2398
  0
LINE
  8
_0-3_STR
  6
CONTINUOUS
 62
    7
 10
2559.9801
 20
2133.2398
 11
2554.6211
 21
2113.2398
  0
LINE
  8
_0-3_STR
  6
CONTINUOUS
 62
    7
 10
2554.6211
 20
2113.2398
 11
2549.2622
 21
2133.2398
  0
LINE
  8
_0-3_STR
  6
CONTINUOUS
 62
    7
 10
2554.6211
 20
2113.2398
 11
2554.6211
 21
2133.2398
  0
LINE
  8
_0-3_STR
  6
CONTINUOUS
 62
    7
 10
2549.2622
 20
2071.2398
 11
2554.6211
 21
2091.2398
  0
LINE
  8
_0-3_STR
  6
CONTINUOUS
 62
    7
 10
2554.6211
 20
2091.2398
 11
2559.9801
 21
2071.2398
  0
LINE
  8
_0-3_STR
  6
CONTINUOUS
 62
    7
 10
2554.6211
 20
2091.2398
 11
2554.6211
 21
2071.2398
  0
TEXT
  8
_0-3_STR
 62
    7
 10
2567.1211
 20
2142.8273
 40
75
 41
1
 50
90
  1
22
  0
TEXT
  8
_0-3_STR
 62
    7
 10
5324.2075
 20
2968.1391
 40
75
 41
1
 50
0
  1
540
  0
LINE
  8
_0-3_STR
  6
CONTINUOUS
 62
    7
 10
5649.2825
 20
2985.9981
 11
5669.2825
 21
2980.6391
  0
LINE
  8
_0-3_STR
  6
CONTINUOUS
 62
    7
 10
5669.2825
 20
2980.6391
 11
5649.2825
 21
2975.2801
  0
LINE
  8
_0-3_STR
  6
CONTINUOUS
 62
    7
 10
5669.2825
 20
2980.6391
 11
5649.2825
 21
2980.6391
  0
LINE
  8
_0-3_STR
  6
CONTINUOUS
 62
    7
 10
5149.2825
 20
2975.2801
 11
5129.2825
 21
2980.6391
  0
LINE
  8
_0-3_STR
  6
CONTINUOUS
 62
    7
 10
5129.2825
 20
2980.6391
 11
5149.2825
 21
2985.9981
  0
LINE
  8
_0-3_STR
  6
CONTINUOUS
 62
    7
 10
5129.2825
 20
2980.6391
 11
5149.2825
 21
2980.6391
  0
TEXT
  8
_0-3_STR
 62
    7
 10
5842.5198
 20
1939.1648
 40
75
 41
1
 50
90
  1
159
  0
LINE
  8
_0-3_STR
  6
CONTINUOUS
 62
    7
 10
5835.3788
 20
1952.2398
 11
5830.0198
 21
1932.2398
  0
LINE
  8
_0-3_STR
  6
CONTINUOUS
 62
    7
 10
5830.0198
 20
1932.2398
 11
5824.6608
 21
1952.2398
  0
LINE
  8
_0-3_STR
  6
CONTINUOUS
 62
    7
 10
5830.0198
 20
1932.2398
 11
5830.0198
 21
1952.2398
  0
LINE
  8
_0-3_STR
  6
CONTINUOUS
 62
    7
 10
5824.6608
 20
2071.2398
 11
5830.0198
 21
2091.2398
  0
LINE
  8
_0-3_STR
  6
CONTINUOUS
 62
    7
 10
5830.0198
 20
2091.2398
 11
5835.3788
 21
2071.2398
  0
LINE
  8
_0-3_STR
  6
CONTINUOUS
 62
    7
 10
5830.0198
 20
2091.2398
 11
5830.0198
 21
2071.2398
  0
TEXT
  8
_0-3_STR
 62
    7
 10
5842.5198
 20
2138.8273
 40
75
 41
1
 50
90
  1
22
  0
LINE
  8
_0-3_STR
  6
CONTINUOUS
 62
    7
 10
5835.3788
 20
2133.2398
 11
5830.0198
 21
2113.2398
  0
LINE
  8
_0-3_STR
  6
CONTINUOUS
 62
    7
 10
5830.0198
 20
2113.2398
 11
5824.6608
 21
2133.2398
  0
LINE
  8
_0-3_STR
  6
CONTINUOUS
 62
    7
 10
5830.0198
 20
2113.2398
 11
5830.0198
 21
2133.2398
  0
LINE
  8
_0-3_STR
  6
CONTINUOUS
 62
    7
 10
5824.6608
 20
2071.2398
 11
5830.0198
 21
2091.2398
  0
LINE
  8
_0-3_STR
  6
CONTINUOUS
 62
    7
 10
5830.0198
 20
2091.2398
 11
5835.3788
 21
2071.2398
  0
LINE
  8
_0-3_STR
  6
CONTINUOUS
 62
    7
 10
5830.0198
 20
2091.2398
 11
5830.0198
 21
2071.2398
  0
TEXT
  8
_0-3_STR
 62
    7
 10
5892.5198
 20
2398.1648
 40
75
 41
1
 50
90
  1
720
  0
LINE
  8
_0-3_STR
  6
CONTINUOUS
 62
    7
 10
5874.6608
 20
2813.2398
 11
5880.0198
 21
2833.2398
  0
LINE
  8
_0-3_STR
  6
CONTINUOUS
 62
    7
 10
5880.0198
 20
2833.2398
 11
5885.3788
 21
2813.2398
  0
LINE
  8
_0-3_STR
  6
CONTINUOUS
 62
    7
 10
5880.0198
 20
2833.2398
 11
5880.0198
 21
2813.2398
  0
LINE
  8
_0-3_STR
  6
CONTINUOUS
 62
    7
 10
5885.3788
 20
2133.2398
 11
5880.0198
 21
2113.2398
  0
LINE
  8
_0-3_STR
  6
CONTINUOUS
 62
    7
 10
5880.0198
 20
2113.2398
 11
5874.6608
 21
2133.2398
  0
LINE
  8
_0-3_STR
  6
CONTINUOUS
 62
    7
 10
5880.0198
 20
2113.2398
 11
5880.0198
 21
2133.2398
  0
TEXT
  8
_0-3_STR
 62
    7
 10
3200.15
 20
3138.1202
 40
75
 41
1
 50
0
  1
1300　(1080)
  0
TEXT
  8
_0-3_STR
 62
    7
 10
3149.318
 20
1747.863
 40
75
 41
1
 50
0
  1
1380　(1080)
  0
ENDSEC
  0
EOF
