  0
SECTION
  2
HEADER
  9
$ACADVER
  1
AC1014
  9
$ACADMAINTVER
 70
     9
  9
$DWGCODEPAGE
  3
ANSI_932
  9
$INSBASE
 10
0.0
 20
0.0
 30
0.0
  9
$EXTMIN
 10
408.7051022842222
 20
303.6896109914658
 30
0.0
  9
$EXTMAX
 10
3740.508834433275
 20
2797.057617397568
 30
0.0
  9
$LIMMIN
 10
0.0
 20
0.0
  9
$LIMMAX
 10
4200.0
 20
2970.0
  9
$ORTHOMODE
 70
     0
  9
$REGENMODE
 70
     1
  9
$FILLMODE
 70
     1
  9
$QTEXTMODE
 70
     0
  9
$MIRRTEXT
 70
     0
  9
$DRAGMODE
 70
     2
  9
$LTSCALE
 40
1.0
  9
$OSMODE
 70
    47
  9
$ATTMODE
 70
     1
  9
$TEXTSIZE
 40
2.5
  9
$TRACEWID
 40
1.0
  9
$TEXTSTYLE
  7
STANDARD
  9
$CLAYER
  8
STR
  9
$CELTYPE
  6
BYLAYER
  9
$CECOLOR
 62
   256
  9
$CELTSCALE
 40
1.0
  9
$DELOBJ
 70
     1
  9
$DISPSILH
 70
     0
  9
$DIMSCALE
 40
1.0
  9
$DIMASZ
 40
20.0
  9
$DIMEXO
 40
0.625
  9
$DIMDLI
 40
3.75
  9
$DIMRND
 40
0.0
  9
$DIMDLE
 40
0.0
  9
$DIMEXE
 40
1.25
  9
$DIMTP
 40
0.0
  9
$DIMTM
 40
0.0
  9
$DIMTXT
 40
30.0
  9
$DIMCEN
 40
2.5
  9
$DIMTSZ
 40
0.0
  9
$DIMTOL
 70
     0
  9
$DIMLIM
 70
     0
  9
$DIMTIH
 70
     0
  9
$DIMTOH
 70
     0
  9
$DIMSE1
 70
     0
  9
$DIMSE2
 70
     0
  9
$DIMTAD
 70
     1
  9
$DIMZIN
 70
     8
  9
$DIMBLK
  1
OPEN30
  9
$DIMASO
 70
     1
  9
$DIMSHO
 70
     1
  9
$DIMPOST
  1

  9
$DIMAPOST
  1

  9
$DIMALT
 70
     0
  9
$DIMALTD
 70
     3
  9
$DIMALTF
 40
0.03937007874016
  9
$DIMLFAC
 40
1.0
  9
$DIMTOFL
 70
     1
  9
$DIMTVP
 40
0.0
  9
$DIMTIX
 70
     0
  9
$DIMSOXD
 70
     0
  9
$DIMSAH
 70
     0
  9
$DIMBLK1
  1

  9
$DIMBLK2
  1

  9
$DIMSTYLE
  2
ISO-25-BRGK
  9
$DIMCLRD
 70
     0
  9
$DIMCLRE
 70
     0
  9
$DIMCLRT
 70
     0
  9
$DIMTFAC
 40
1.0
  9
$DIMGAP
 40
10.0
  9
$DIMJUST
 70
     0
  9
$DIMSD1
 70
     0
  9
$DIMSD2
 70
     0
  9
$DIMTOLJ
 70
     0
  9
$DIMTZIN
 70
     8
  9
$DIMALTZ
 70
     0
  9
$DIMALTTZ
 70
     0
  9
$DIMFIT
 70
     2
  9
$DIMUPT
 70
     0
  9
$DIMUNIT
 70
     2
  9
$DIMDEC
 70
     2
  9
$DIMTDEC
 70
     2
  9
$DIMALTU
 70
     2
  9
$DIMALTTD
 70
     3
  9
$DIMTXSTY
  7
STANDARD
  9
$DIMAUNIT
 70
     0
  9
$LUNITS
 70
     2
  9
$LUPREC
 70
     4
  9
$SKETCHINC
 40
1.0
  9
$FILLETRAD
 40
0.0
  9
$AUNITS
 70
     0
  9
$AUPREC
 70
     0
  9
$MENU
  1
.
  9
$ELEVATION
 40
0.0
  9
$PELEVATION
 40
0.0
  9
$THICKNESS
 40
0.0
  9
$LIMCHECK
 70
     0
  9
$BLIPMODE
 70
     0
  9
$CHAMFERA
 40
0.0
  9
$CHAMFERB
 40
0.0
  9
$CHAMFERC
 40
0.0
  9
$CHAMFERD
 40
0.0
  9
$SKPOLY
 70
     0
  9
$TDCREATE
 40
2453468.462395104
  9
$TDUPDATE
 40
2453472.729835243
  9
$TDINDWG
 40
0.2950804861
  9
$TDUSRTIMER
 40
0.2950803009
  9
$USRTIMER
 70
     1
  9
$ANGBASE
 50
0.0
  9
$ANGDIR
 70
     0
  9
$PDMODE
 70
     0
  9
$PDSIZE
 40
0.0
  9
$PLINEWID
 40
0.0
  9
$COORDS
 70
     1
  9
$SPLFRAME
 70
     0
  9
$SPLINETYPE
 70
     6
  9
$SPLINESEGS
 70
     8
  9
$ATTDIA
 70
     0
  9
$ATTREQ
 70
     1
  9
$HANDLING
 70
 22529
  9
$HANDSEED
  5
10FB
  9
$SURFTAB1
 70
     6
  9
$SURFTAB2
 70
     6
  9
$SURFTYPE
 70
     6
  9
$SURFU
 70
     6
  9
$SURFV
 70
     6
  9
$UCSNAME
  2

  9
$UCSORG
 10
0.0
 20
0.0
 30
0.0
  9
$UCSXDIR
 10
1.0
 20
0.0
 30
0.0
  9
$UCSYDIR
 10
0.0
 20
1.0
 30
0.0
  9
$PUCSNAME
  2

  9
$PUCSORG
 10
0.0
 20
0.0
 30
0.0
  9
$PUCSXDIR
 10
1.0
 20
0.0
 30
0.0
  9
$PUCSYDIR
 10
0.0
 20
1.0
 30
0.0
  9
$USERI1
 70
     0
  9
$USERI2
 70
     0
  9
$USERI3
 70
     0
  9
$USERI4
 70
     0
  9
$USERI5
 70
     0
  9
$USERR1
 40
0.0
  9
$USERR2
 40
0.0
  9
$USERR3
 40
0.0
  9
$USERR4
 40
0.0
  9
$USERR5
 40
0.0
  9
$WORLDVIEW
 70
     1
  9
$SHADEDGE
 70
     3
  9
$SHADEDIF
 70
    70
  9
$TILEMODE
 70
     1
  9
$MAXACTVP
 70
    64
  9
$PINSBASE
 10
0.0
 20
0.0
 30
0.0
  9
$PLIMCHECK
 70
     0
  9
$PEXTMIN
 10
-3.005386446596844
 20
-3.381084920792716
 30
-0.0000000349181948
  9
$PEXTMAX
 10
287.6144771297187
 20
201.2224414230668
 30
0.0000000814935746
  9
$PLIMMIN
 10
-5.873748779296875
 20
-5.873749732971191
  9
$PLIMMAX
 10
291.0945739746093
 20
204.0995779037475
  9
$UNITMODE
 70
     0
  9
$VISRETAIN
 70
     1
  9
$PLINEGEN
 70
     0
  9
$PSLTSCALE
 70
     1
  9
$TREEDEPTH
 70
  3020
  9
$PICKSTYLE
 70
     1
  9
$CMLSTYLE
  2
STANDARD
  9
$CMLJUST
 70
     0
  9
$CMLSCALE
 40
20.0
  9
$PROXYGRAPHICS
 70
     1
  9
$MEASUREMENT
 70
     1
  0
ENDSEC
  0
SECTION
  2
CLASSES
  0
CLASS
  1
ACDBDICTIONARYWDFLT
  2
AcDbDictionaryWithDefault
  3
AutoCAD 2000
 90
        0
280
     0
281
     0
  0
CLASS
  1
ACDBPLACEHOLDER
  2
AcDbPlaceHolder
  3
AutoCAD 2000
 90
        0
280
     0
281
     0
  0
CLASS
  1
LAYOUT
  2
AcDbLayout
  3
AutoCAD 2000
 90
        0
280
     0
281
     0
  0
CLASS
  1
DICTIONARYVAR
  2
AcDbDictionaryVar
  3
AutoCAD 2000
 90
        0
280
     0
281
     0
  0
CLASS
  1
DIMASSOC
  2
AcDbDimAssoc
  3
"AcDbDimAssoc|Product Desc:     AcDim ARX App For Dimension|Company:          Autodesk, Inc.|WEB Address:      www.autodesk.com"
 90
        0
280
     0
281
     0
  0
CLASS
  1
LONG_TRANSACTION
  2
AcDbLongTransaction
  3
AutoCAD 2000
 90
        0
280
     0
281
     0
  0
CLASS
  1
LWPOLYLINE
  2
AcDbPolyline
  3
AutoCAD 2000
 90
        0
280
     0
281
     1
  0
CLASS
  1
HATCH
  2
AcDbHatch
  3
AutoCAD 2000
 90
        0
280
     0
281
     1
  0
CLASS
  1
XRECORD
  2
AcDbXrecord
  3
AutoCAD 2000
 90
        0
280
     0
281
     0
  0
ENDSEC
  0
SECTION
  2
TABLES
  0
TABLE
  2
VPORT
  5
8
330
0
100
AcDbSymbolTable
 70
     3
  0
VPORT
  5
10D3
330
8
100
AcDbSymbolTableRecord
100
AcDbViewportTableRecord
  2
*ACTIVE
 70
     0
 10
0.0
 20
0.0
 11
1.0
 21
1.0
 12
2580.376740548746
 22
2044.070293173802
 13
0.0
 23
0.0
 14
10.0
 24
10.0
 15
10.0
 25
10.0
 16
0.0
 26
0.0
 36
1.0
 17
0.0
 27
0.0
 37
0.0
 40
6825.13018567936
 41
1.323651452282157
 42
50.0
 43
0.0
 44
0.0
 50
0.0
 51
0.0
 71
     0
 72
  1000
 73
     1
 74
     3
 75
     0
 76
     0
 77
     0
 78
     0
  0
ENDTAB
  0
TABLE
  2
LTYPE
  5
5
330
0
100
AcDbSymbolTable
 70
     2
  0
LTYPE
  5
14
330
5
100
AcDbSymbolTableRecord
100
AcDbLinetypeTableRecord
  2
BYBLOCK
 70
     0
  3

 72
    65
 73
     0
 40
0.0
  0
LTYPE
  5
15
330
5
100
AcDbSymbolTableRecord
100
AcDbLinetypeTableRecord
  2
BYLAYER
 70
     0
  3

 72
    65
 73
     0
 40
0.0
  0
LTYPE
  5
16
330
5
100
AcDbSymbolTableRecord
100
AcDbLinetypeTableRecord
  2
CONTINUOUS
 70
     0
  3
Solid line
 72
    65
 73
     0
 40
0.0
  0
LTYPE
  5
8D
330
5
100
AcDbSymbolTableRecord
100
AcDbLinetypeTableRecord
  2
CENTER
 70
     0
  3
Center ____ _ ____ _ ____ _ ____ _ ____ _ ____
 72
    65
 73
     4
 40
50.8
 49
31.75
 74
     0
 49
-6.349999999999999
 74
     0
 49
6.349999999999999
 74
     0
 49
-6.349999999999999
 74
     0
  0
ENDTAB
  0
TABLE
  2
LAYER
  5
2
330
0
100
AcDbSymbolTable
 70
     4
  0
LAYER
  5
10
330
2
100
AcDbSymbolTableRecord
100
AcDbLayerTableRecord
  2
0
 70
     0
 62
     7
  6
CONTINUOUS
  0
LAYER
  5
8A
330
2
100
AcDbSymbolTableRecord
100
AcDbLayerTableRecord
  2
BMK
 70
     0
 62
     1
  6
CENTER
  0
LAYER
  5
8E
330
2
100
AcDbSymbolTableRecord
100
AcDbLayerTableRecord
  2
DEFPOINTS
 70
     0
 62
     7
  6
CONTINUOUS
  0
LAYER
  5
8F
330
2
100
AcDbSymbolTableRecord
100
AcDbLayerTableRecord
  2
STR
 70
     0
 62
     7
  6
CONTINUOUS
  0
ENDTAB
  0
TABLE
  2
STYLE
  5
3
330
0
100
AcDbSymbolTable
 70
     2
  0
STYLE
  5
11
330
3
100
AcDbSymbolTableRecord
100
AcDbTextStyleTableRecord
  2
STANDARD
 70
     0
 40
0.0
 41
1.0
 50
0.0
 71
     0
 42
2.5
  3
txt.shx
  4
bigfont.shx
  0
STYLE
  5
88
330
3
100
AcDbSymbolTableRecord
100
AcDbTextStyleTableRecord
  2

 70
     1
 40
0.0
 41
1.0
 50
0.0
 71
     0
 42
2.5
  3
ltypeshp.shx
  4

  0
ENDTAB
  0
TABLE
  2
VIEW
  5
6
330
0
100
AcDbSymbolTable
 70
     0
  0
ENDTAB
  0
TABLE
  2
UCS
  5
7
330
0
100
AcDbSymbolTable
 70
     0
  0
ENDTAB
  0
TABLE
  2
APPID
  5
9
330
0
100
AcDbSymbolTable
 70
     1
  0
APPID
  5
12
330
9
100
AcDbSymbolTableRecord
100
AcDbRegAppTableRecord
  2
ACAD
 70
     0
  0
ENDTAB
  0
TABLE
  2
DIMSTYLE
  5
A
330
0
100
AcDbSymbolTable
 70
     2
  0
DIMSTYLE
105
27
330
A
100
AcDbSymbolTableRecord
100
AcDbDimStyleTableRecord
  2
ISO-25
 70
     0
  3

  4

  5

  6

  7

 40
1.0
 41
2.5
 42
0.625
 43
3.75
 44
1.25
 45
0.0
 46
0.0
 47
0.0
 48
0.0
140
2.5
141
2.5
142
0.0
143
0.03937007874016
144
1.0
145
0.0
146
1.0
147
0.625
 71
     0
 72
     0
 73
     0
 74
     0
 75
     0
 76
     0
 77
     1
 78
     8
170
     0
171
     3
172
     1
173
     0
174
     0
175
     0
176
     0
177
     0
178
     0
270
     2
271
     2
272
     2
273
     2
274
     3
340
11
275
     0
280
     0
281
     0
282
     0
283
     0
284
     8
285
     0
286
     0
287
     3
288
     0
  0
DIMSTYLE
105
103
330
A
100
AcDbSymbolTableRecord
100
AcDbDimStyleTableRecord
  2
ISO-25-BRGK
 70
     0
  3

  4

  5
OPEN30
  6

  7

 40
1.0
 41
20.0
 42
0.625
 43
3.75
 44
1.25
 45
0.0
 46
0.0
 47
0.0
 48
0.0
140
30.0
141
2.5
142
0.0
143
0.03937007874016
144
1.0
145
0.0
146
1.0
147
10.0
 71
     0
 72
     0
 73
     0
 74
     0
 75
     0
 76
     0
 77
     1
 78
     8
170
     0
171
     3
172
     1
173
     0
174
     0
175
     0
176
     0
177
     0
178
     0
270
     2
271
     2
272
     2
273
     2
274
     3
340
11
275
     0
280
     0
281
     0
282
     0
283
     0
284
     8
285
     0
286
     0
287
     2
288
     0
  0
ENDTAB
  0
TABLE
  2
BLOCK_RECORD
  5
1
330
0
100
AcDbSymbolTable
 70
    20
  0
BLOCK_RECORD
  5
1F
102
{ACAD_XDICTIONARY
360
10F5
102
}
330
1
100
AcDbSymbolTableRecord
100
AcDbBlockTableRecord
  2
*MODEL_SPACE
  0
BLOCK_RECORD
  5
50
102
{ACAD_XDICTIONARY
360
10F7
102
}
330
1
100
AcDbSymbolTableRecord
100
AcDbBlockTableRecord
  2
*PAPER_SPACE
  0
BLOCK_RECORD
  5
FA
330
1
100
AcDbSymbolTableRecord
100
AcDbBlockTableRecord
  2
_OPEN30
  0
BLOCK_RECORD
  5
100
330
1
100
AcDbSymbolTableRecord
100
AcDbBlockTableRecord
  2
_NONE
  0
BLOCK_RECORD
  5
1B4
330
1
100
AcDbSymbolTableRecord
100
AcDbBlockTableRecord
  2
A$C729548DD
  0
ENDTAB
  0
ENDSEC
  0
SECTION
  2
BLOCKS
  0
BLOCK
  5
20
330
1F
100
AcDbEntity
  8
0
100
AcDbBlockBegin
  2
*MODEL_SPACE
 70
     0
 10
0.0
 20
0.0
 30
0.0
  3
*MODEL_SPACE
  1

  0
ENDBLK
  5
21
330
1F
100
AcDbEntity
  8
0
100
AcDbBlockEnd
  0
BLOCK
  5
52
330
50
100
AcDbEntity
 67
     1
  8
0
100
AcDbBlockBegin
  2
*PAPER_SPACE
 70
     0
 10
0.0
 20
0.0
 30
0.0
  3
*PAPER_SPACE
  1

  0
ENDBLK
  5
53
330
50
100
AcDbEntity
 67
     1
  8
0
100
AcDbBlockEnd
  0
BLOCK
  5
FB
330
FA
100
AcDbEntity
  8
0
100
AcDbBlockBegin
  2
_OPEN30
 70
     0
 10
0.0
 20
0.0
 30
0.0
  3
_OPEN30
  1

  0
LINE
  5
FC
330
FA
100
AcDbEntity
  8
0
  6
BYBLOCK
 62
     0
100
AcDbLine
 10
-1.0
 20
0.26794919
 30
0.0
 11
0.0
 21
0.0
 31
0.0
  0
LINE
  5
FD
330
FA
100
AcDbEntity
  8
0
  6
BYBLOCK
 62
     0
100
AcDbLine
 10
0.0
 20
0.0
 30
0.0
 11
-1.0
 21
-0.26794919
 31
0.0
  0
LINE
  5
FE
330
FA
100
AcDbEntity
  8
0
  6
BYBLOCK
 62
     0
100
AcDbLine
 10
0.0
 20
0.0
 30
0.0
 11
-1.0
 21
0.0
 31
0.0
  0
ENDBLK
  5
FF
330
FA
100
AcDbEntity
  8
0
100
AcDbBlockEnd
  0
BLOCK
  5
101
330
100
100
AcDbEntity
  8
0
100
AcDbBlockBegin
  2
_NONE
 70
     0
 10
0.0
 20
0.0
 30
0.0
  3
_NONE
  1

  0
ENDBLK
  5
102
330
100
100
AcDbEntity
  8
0
100
AcDbBlockEnd
  0
BLOCK
  5
1F6
330
1B4
100
AcDbEntity
  8
0
100
AcDbBlockBegin
  2
A$C729548DD
 70
     0
 10
0.0
 20
0.0
 30
0.0
  3
A$C729548DD
  1

  0
LINE
  5
1B5
330
1B4
100
AcDbEntity
  8
STR
100
AcDbLine
 10
-0.0000009027020837
 20
127.0000034679299
 30
0.0
 11
-0.0000009027020837
 21
1862.940395141106
 31
0.0
  0
LINE
  5
1B6
330
1B4
100
AcDbEntity
  8
STR
100
AcDbLine
 10
1379.999999097298
 20
186.00000346793
 30
0.0
 11
1379.999999097298
 21
1843.630473564977
 31
0.0
  0
LINE
  5
1B7
330
1B4
100
AcDbEntity
  8
STR
100
AcDbLine
 10
79.99999909729791
 20
755.1516849830859
 30
0.0
 11
79.99999909729786
 21
1994.358201038612
 31
0.0
  0
LINE
  5
1B8
330
1B4
100
AcDbEntity
  8
STR
100
AcDbLine
 10
1829.999999097297
 20
140.0000034679299
 30
0.0
 11
1829.999999097297
 21
1994.358201038612
 31
0.0
  0
LINE
  5
1B9
330
1B4
100
AcDbEntity
  8
STR
100
AcDbLine
 10
-0.0000009027021406
 20
1091.000003467929
 30
0.0
 11
1869.999999097297
 21
1091.000003467929
 31
0.0
  0
LINE
  5
1BA
330
1B4
100
AcDbEntity
  8
STR
100
AcDbLine
 10
-0.0000009027021406
 20
1521.000003467929
 30
0.0
 11
1869.999999097297
 21
1521.000003467929
 31
0.0
  0
LINE
  5
1BB
330
1B4
100
AcDbEntity
  8
BMK
100
AcDbLine
 10
-0.0000009027021406
 20
1306.000003467929
 30
0.0
 11
3632.442605582238
 21
1306.000003467929
 31
0.0
  0
LINE
  5
1BC
330
1B4
100
AcDbEntity
  8
STR
100
AcDbLine
 10
1869.999999097298
 20
1091.000003467929
 30
0.0
 11
1869.999999097297
 21
1521.000003467929
 31
0.0
  0
LINE
  5
1BD
330
1B4
100
AcDbEntity
  8
STR
100
AcDbLine
 10
79.9999990972978
 20
51.00000346792987
 30
0.0
 11
-0.0000009027020837
 21
51.00000346792993
 31
0.0
  0
LINE
  5
1BE
330
1B4
100
AcDbEntity
  8
STR
100
AcDbLine
 10
79.9999990972978
 20
89.00000346792991
 30
0.0
 11
-0.0000009027020837
 21
89.00000346792991
 31
0.0
  0
LINE
  5
1BF
330
1B4
100
AcDbEntity
  8
STR
100
AcDbLine
 10
79.9999990972978
 20
127.0000034679299
 30
0.0
 11
-0.0000009027020837
 21
127.0000034679299
 31
0.0
  0
LINE
  5
1C0
330
1B4
100
AcDbEntity
  8
STR
100
AcDbLine
 10
79.9999990972978
 20
13.00000346792987
 30
0.0
 11
-0.0000009027020837
 21
13.00000346792993
 31
0.0
  0
LINE
  5
1C1
330
1B4
100
AcDbEntity
  8
STR
100
AcDbLine
 10
162.4999990972978
 20
562.0000034679299
 30
0.0
 11
162.4999990972977
 21
477.0000034679299
 31
0.0
  0
LINE
  5
1C2
330
1B4
100
AcDbEntity
  8
STR
100
AcDbLine
 10
162.4999990972977
 20
562.0000034679297
 30
0.0
 11
382.4999990972978
 21
562.0000034679299
 31
0.0
  0
LINE
  5
1C3
330
1B4
100
AcDbEntity
  8
STR
100
AcDbLine
 10
382.4999990972978
 20
477.0000034679299
 30
0.0
 11
162.4999990972976
 21
477.0000034679299
 31
0.0
  0
LINE
  5
1C4
330
1B4
100
AcDbEntity
  8
STR
100
AcDbLine
 10
1869.999999097298
 20
616.0000034679299
 30
0.0
 11
1869.999999097298
 21
186.00000346793
 31
0.0
  0
LINE
  5
1C5
330
1B4
100
AcDbEntity
  8
STR
100
AcDbLine
 10
1739.999999097298
 20
616.0000034679299
 30
0.0
 11
1739.999999097298
 21
186.00000346793
 31
0.0
  0
LINE
  5
1C6
330
1B4
100
AcDbEntity
  8
STR
100
AcDbLine
 10
719.9999990972983
 20
616.00000346793
 30
0.0
 11
719.9999990972978
 21
186.00000346793
 31
0.0
  0
LINE
  5
1C7
330
1B4
100
AcDbEntity
  8
STR
100
AcDbLine
 10
679.9999990972978
 20
616.00000346793
 30
0.0
 11
679.999999097298
 21
186.00000346793
 31
0.0
  0
LINE
  5
1C8
330
1B4
100
AcDbEntity
  8
STR
100
AcDbLine
 10
614.9999990972978
 20
286.0000034679301
 30
0.0
 11
654.9999990972978
 21
286.00000346793
 31
0.0
  0
LINE
  5
1C9
330
1B4
100
AcDbEntity
  8
STR
100
AcDbLine
 10
614.9999990972978
 20
526.0000034679296
 30
0.0
 11
654.9999990972978
 21
526.0000034679298
 31
0.0
  0
LINE
  5
1CA
330
1B4
100
AcDbEntity
  8
STR
100
AcDbLine
 10
574.9999990972979
 20
346.0000034679298
 30
0.0
 11
614.9999990972978
 21
346.0000034679298
 31
0.0
  0
LINE
  5
1CB
330
1B4
100
AcDbEntity
  8
STR
100
AcDbLine
 10
574.9999990972979
 20
466.0000034679297
 30
0.0
 11
614.9999990972978
 21
466.0000034679297
 31
0.0
  0
LINE
  5
1CC
330
1B4
100
AcDbEntity
  8
STR
100
AcDbLine
 10
554.9999990972979
 20
366.0000034679299
 30
0.0
 11
574.9999990972979
 21
366.0000034679299
 31
0.0
  0
LINE
  5
1CD
330
1B4
100
AcDbEntity
  8
STR
100
AcDbLine
 10
554.9999990972979
 20
446.0000034679297
 30
0.0
 11
574.9999990972979
 21
446.0000034679297
 31
0.0
  0
LINE
  5
1CE
330
1B4
100
AcDbEntity
  8
STR
100
AcDbLine
 10
494.999999097298
 20
326.0000034679298
 30
0.0
 11
554.9999990972979
 21
326.0000034679298
 31
0.0
  0
LINE
  5
1CF
330
1B4
100
AcDbEntity
  8
STR
100
AcDbLine
 10
494.999999097298
 20
486.0000034679297
 30
0.0
 11
554.9999990972979
 21
486.0000034679297
 31
0.0
  0
LINE
  5
1D0
330
1B4
100
AcDbEntity
  8
STR
100
AcDbLine
 10
654.9999990972978
 20
286.0000034679299
 30
0.0
 11
654.9999990972978
 21
526.0000034679298
 31
0.0
  0
LINE
  5
1D1
330
1B4
100
AcDbEntity
  8
STR
100
AcDbLine
 10
614.9999990972978
 20
286.00000346793
 30
0.0
 11
614.9999990972978
 21
526.0000034679296
 31
0.0
  0
LINE
  5
1D2
330
1B4
100
AcDbEntity
  8
STR
100
AcDbLine
 10
574.999999097298
 20
346.0000034679298
 30
0.0
 11
574.999999097298
 21
466.0000034679298
 31
0.0
  0
LINE
  5
1D3
330
1B4
100
AcDbEntity
  8
STR
100
AcDbLine
 10
554.999999097298
 20
326.0000034679299
 30
0.0
 11
554.9999990972979
 21
486.0000034679297
 31
0.0
  0
LINE
  5
1D4
330
1B4
100
AcDbEntity
  8
STR
100
AcDbLine
 10
312.4999990972976
 20
335.0000034679299
 30
0.0
 11
312.4999990972975
 21
477.0000034679299
 31
0.0
  0
LINE
  5
1D5
330
1B4
100
AcDbEntity
  8
STR
100
AcDbLine
 10
282.4999990972977
 20
335.0000034679299
 30
0.0
 11
282.4999990972977
 21
477.0000034679299
 31
0.0
  0
LINE
  5
1D6
330
1B4
100
AcDbEntity
  8
STR
100
AcDbLine
 10
382.4999990972978
 20
532.00000346793
 30
0.0
 11
382.4999990972978
 21
462.00000346793
 31
0.0
  0
LINE
  5
1D7
330
1B4
100
AcDbEntity
  8
STR
100
AcDbLine
 10
382.4999990972978
 20
335.0000034679299
 30
0.0
 11
162.4999990972977
 21
335.0000034679299
 31
0.0
  0
LINE
  5
1D8
330
1B4
100
AcDbEntity
  8
STR
100
AcDbLine
 10
162.4999990972978
 20
250.0000034679298
 30
0.0
 11
382.4999990972978
 21
250.0000034679298
 31
0.0
  0
LINE
  5
1D9
330
1B4
100
AcDbEntity
  8
STR
100
AcDbLine
 10
162.4999990972978
 20
250.0000034679298
 30
0.0
 11
162.4999990972977
 21
335.0000034679297
 31
0.0
  0
LINE
  5
1DA
330
1B4
100
AcDbEntity
  8
STR
100
AcDbLine
 10
382.4999990972978
 20
585.0000034679299
 30
0.0
 11
494.9999990972981
 21
585.0000034679299
 31
0.0
  0
LINE
  5
1DB
330
1B4
100
AcDbEntity
  8
STR
100
AcDbLine
 10
494.9999990972981
 20
250.0000034679299
 30
0.0
 11
494.9999990972982
 21
595.00000346793
 31
0.0
  0
LINE
  5
1DC
330
1B4
100
AcDbEntity
  8
STR
100
AcDbLine
 10
494.999999097298
 20
250.0000034679298
 30
0.0
 11
544.999999097298
 21
250.0000034679298
 31
0.0
  0
LINE
  5
1DD
330
1B4
100
AcDbEntity
  8
STR
100
AcDbLine
 10
382.4999990972978
 20
595.0000034679298
 30
0.0
 11
494.9999990972981
 21
595.00000346793
 31
0.0
  0
LINE
  5
1DE
330
1B4
100
AcDbEntity
  8
STR
100
AcDbLine
 10
382.4999990972977
 20
250.0000034679298
 30
0.0
 11
382.4999990972978
 21
595.0000034679298
 31
0.0
  0
LINE
  5
1DF
330
1B4
100
AcDbEntity
  8
STR
100
AcDbLine
 10
332.4999990972978
 20
250.0000034679298
 30
0.0
 11
382.4999990972978
 21
250.0000034679298
 31
0.0
  0
LINE
  5
1E0
330
1B4
100
AcDbEntity
  8
STR
100
AcDbLine
 10
332.4999990972978
 20
200.0000034679298
 30
0.0
 11
332.4999990972978
 21
250.0000034679298
 31
0.0
  0
LINE
  5
1E1
330
1B4
100
AcDbEntity
  8
STR
100
AcDbLine
 10
139.9999990972978
 20
315.0000034679298
 30
0.0
 11
79.99999909729786
 21
315.0000034679298
 31
0.0
  0
LINE
  5
1E2
330
1B4
100
AcDbEntity
  8
STR
100
AcDbLine
 10
139.9999990972978
 20
315.0000034679298
 30
0.0
 11
139.9999990972978
 21
200.0000034679298
 31
0.0
  0
LINE
  5
1E3
330
1B4
100
AcDbEntity
  8
STR
100
AcDbLine
 10
544.9999990972978
 20
200.0000034679298
 30
0.0
 11
544.9999990972981
 21
250.0000034679298
 31
0.0
  0
LINE
  5
1E4
330
1B4
100
AcDbEntity
  8
STR
100
AcDbLine
 10
594.9999990972977
 20
140.0000034679299
 30
0.0
 11
594.9999990972978
 21
200.0000034679298
 31
0.0
  0
LINE
  5
1E5
330
1B4
100
AcDbEntity
  8
STR
100
AcDbLine
 10
589.9999990972978
 20
70.00000346792987
 30
0.0
 11
589.9999990972977
 21
140.0000034679299
 31
0.0
  0
LINE
  5
1E6
330
1B4
100
AcDbEntity
  8
STR
100
AcDbLine
 10
654.9999990972983
 20
616.00000346793
 30
0.0
 11
654.9999990972978
 21
186.00000346793
 31
0.0
  0
LINE
  5
1E7
330
1B4
100
AcDbEntity
  8
STR
100
AcDbLine
 10
1379.999999097298
 20
186.00000346793
 30
0.0
 11
1379.999999097297
 21
30.00000346792987
 31
0.0
  0
LINE
  5
1E8
330
1B4
100
AcDbEntity
  8
STR
100
AcDbLine
 10
79.99999909729786
 20
315.0000034679298
 30
0.0
 11
79.99999909729786
 21
140.0000034679299
 31
0.0
  0
LINE
  5
1E9
330
1B4
100
AcDbEntity
  8
STR
100
AcDbLine
 10
594.9999990972978
 20
200.0000034679298
 30
0.0
 11
79.99999909729786
 21
200.00000346793
 31
0.0
  0
LINE
  5
1EA
330
1B4
100
AcDbEntity
  8
STR
100
AcDbLine
 10
79.99999909729786
 20
70.0000034679299
 30
0.0
 11
589.9999990972976
 21
70.0000034679299
 31
0.0
  0
LINE
  5
1EB
330
1B4
100
AcDbEntity
  8
STR
100
AcDbLine
 10
79.99999909729786
 20
140.0000034679299
 30
0.0
 11
79.99999909729786
 21
0.0000034679299006
 31
0.0
  0
LINE
  5
1EC
330
1B4
100
AcDbEntity
  8
STR
100
AcDbLine
 10
79.99999909729786
 20
140.0000034679299
 30
0.0
 11
79.99999909729791
 21
0.0000034679299574
 31
0.0
  0
LINE
  5
1ED
330
1B4
100
AcDbEntity
  8
STR
100
AcDbLine
 10
-0.0000009027021406
 20
127.0000034679298
 30
0.0
 11
-0.0000009027020837
 21
13.00000346792995
 31
0.0
  0
LINE
  5
1EE
330
1B4
100
AcDbEntity
  8
STR
100
AcDbLine
 10
1829.999999097297
 20
140.0000034679299
 30
0.0
 11
1829.999999097297
 21
0.0000034679299006
 31
0.0
  0
LINE
  5
1EF
330
1B4
100
AcDbEntity
  8
STR
100
AcDbLine
 10
79.99999909729791
 20
30.00000346792992
 30
0.0
 11
1829.999999097297
 21
30.0000034679299
 31
0.0
  0
LINE
  5
1F0
330
1B4
100
AcDbEntity
  8
STR
100
AcDbLine
 10
589.9999990972978
 20
110.0000034679299
 30
0.0
 11
1829.999999097297
 21
110.0000034679299
 31
0.0
  0
LINE
  5
1F1
330
1B4
100
AcDbEntity
  8
STR
100
AcDbLine
 10
79.99999909729786
 20
140.0000034679299
 30
0.0
 11
1829.999999097297
 21
140.0000034679299
 31
0.0
  0
LINE
  5
1F2
330
1B4
100
AcDbEntity
  8
STR
100
AcDbLine
 10
654.9999990972983
 20
616.00000346793
 30
0.0
 11
1869.999999097298
 21
616.00000346793
 31
0.0
  0
LINE
  5
1F3
330
1B4
100
AcDbEntity
  8
STR
100
AcDbLine
 10
654.9999990972978
 20
186.00000346793
 30
0.0
 11
1869.999999097298
 21
186.00000346793
 31
0.0
  0
LINE
  5
1F4
330
1B4
100
AcDbEntity
  8
BMK
100
AcDbLine
 10
-0.0000009027021406
 20
406.0000034679299
 30
0.0
 11
3632.442605582238
 21
406.0000034679299
 31
0.0
  0
LINE
  5
1F5
330
1B4
100
AcDbEntity
  8
STR
100
AcDbLine
 10
79.99999909729786
 20
0.0000034679298722
 30
0.0
 11
1829.999999097297
 21
0.0000034679299006
 31
0.0
  0
ENDBLK
  5
1F7
330
1B4
100
AcDbEntity
  8
0
100
AcDbBlockEnd
  0
ENDSEC
  0
SECTION
  2
ENTITIES
  0
LINE
  5
F1
330
1F
100
AcDbEntity
  8
BMK
100
AcDbLine
 10
3390.508834433274
 20
1519.519103967724
 30
0.0
 11
3390.508834433275
 21
544.1465966577097
 31
0.0
  0
LINE
  5
1A6
330
1F
100
AcDbEntity
  8
BMK
100
AcDbLine
 10
596.5677597156745
 20
2160.314172315881
 30
0.0
 11
2599.602311388723
 21
2160.31417231588
 31
0.0
  0
LINE
  5
230
330
1F
100
AcDbEntity
  8
BMK
100
AcDbLine
 10
723.7148387572943
 20
2370.314172315881
 30
0.0
 11
643.7148387572944
 21
2370.314172315881
 31
0.0
  0
LINE
  5
234
330
1F
100
AcDbEntity
  8
BMK
100
AcDbLine
 10
683.7148387572944
 20
2330.314172315881
 30
0.0
 11
683.7148387572944
 21
2410.314172315881
 31
0.0
  0
LINE
  5
24B
330
1F
100
AcDbEntity
  8
BMK
100
AcDbLine
 10
513.7148387572942
 20
1100.314172315881
 30
0.0
 11
3740.508834433275
 21
1100.31417231588
 31
0.0
  0
TEXT
  5
4DB
330
1F
100
AcDbEntity
  8
STR
100
AcDbText
 10
631.5748005571399
 20
2737.057617397569
 30
0.0
 40
60.0
  1
3-2-4　　KYT-408WH（新ベース用）
100
AcDbText
  0
LINE
  5
75F
330
1F
100
AcDbEntity
  8
STR
100
AcDbLine
 10
613.7148387572942
 20
576.314172315881
 30
0.0
 11
2603.714838757293
 21
576.314172315881
 31
0.0
  0
LINE
  5
760
330
1F
100
AcDbEntity
  8
STR
100
AcDbLine
 10
613.7148387572942
 20
735.314172315881
 30
0.0
 11
2603.714838757293
 21
735.314172315881
 31
0.0
  0
LINE
  5
764
330
1F
100
AcDbEntity
  8
STR
100
AcDbLine
 10
653.7148387572942
 20
576.314172315881
 30
0.0
 11
653.7148387572942
 21
735.314172315881
 31
0.0
  0
LINE
  5
765
330
1F
100
AcDbEntity
  8
STR
100
AcDbLine
 10
663.7148387572942
 20
760.3141723158812
 30
0.0
 11
1173.714838757293
 21
760.314172315881
 31
0.0
  0
LINE
  5
76A
330
1F
100
AcDbEntity
  8
STR
100
AcDbLine
 10
1313.714838757294
 20
800.314172315881
 30
0.0
 11
1313.714838757294
 21
1400.314172315881
 31
0.0
  0
LINE
  5
76B
330
1F
100
AcDbEntity
  8
STR
100
AcDbLine
 10
703.7148387572943
 20
1220.314172315881
 30
0.0
 11
703.7148387572943
 21
1360.314172315881
 31
0.0
  0
LINE
  5
76D
330
1F
100
AcDbEntity
  8
STR
100
AcDbLine
 10
1273.714838757294
 20
800.314172315881
 30
0.0
 11
2543.714838757294
 21
800.314172315881
 31
0.0
  0
LINE
  5
76E
330
1F
100
AcDbEntity
  8
STR
100
AcDbLine
 10
1273.714838757294
 20
1400.314172315881
 30
0.0
 11
2543.714838757294
 21
1400.314172315881
 31
0.0
  0
LINE
  5
76F
330
1F
100
AcDbEntity
  8
STR
100
AcDbLine
 10
1273.714838757294
 20
800.314172315881
 30
0.0
 11
1273.714838757294
 21
1400.314172315881
 31
0.0
  0
LINE
  5
770
330
1F
100
AcDbEntity
  8
STR
100
AcDbLine
 10
1223.714838757294
 20
900.314172315881
 30
0.0
 11
1223.714838757294
 21
1300.314172315881
 31
0.0
  0
LINE
  5
771
330
1F
100
AcDbEntity
  8
STR
100
AcDbLine
 10
1143.714838757294
 20
1000.314172315881
 30
0.0
 11
1143.714838757294
 21
1200.314172315881
 31
0.0
  0
LINE
  5
772
330
1F
100
AcDbEntity
  8
STR
100
AcDbLine
 10
1103.714838757294
 20
980.3141723158811
 30
0.0
 11
1103.714838757294
 21
1220.314172315881
 31
0.0
  0
LINE
  5
773
330
1F
100
AcDbEntity
  8
STR
100
AcDbLine
 10
1053.714838757294
 20
820.3141723158809
 30
0.0
 11
1053.714838757294
 21
1400.314172315881
 31
0.0
  0
LINE
  5
775
330
1F
100
AcDbEntity
  8
STR
100
AcDbLine
 10
1223.714838757294
 20
1300.314172315881
 30
0.0
 11
1273.714838757294
 21
1300.314172315881
 31
0.0
  0
LINE
  5
776
330
1F
100
AcDbEntity
  8
STR
100
AcDbLine
 10
1223.714838757294
 20
900.314172315881
 30
0.0
 11
1273.714838757294
 21
900.314172315881
 31
0.0
  0
LINE
  5
777
330
1F
100
AcDbEntity
  8
STR
100
AcDbLine
 10
1143.714838757294
 20
1200.314172315881
 30
0.0
 11
1223.714838757294
 21
1200.314172315881
 31
0.0
  0
LINE
  5
778
330
1F
100
AcDbEntity
  8
STR
100
AcDbLine
 10
1143.714838757294
 20
1000.314172315881
 30
0.0
 11
1223.714838757294
 21
1000.314172315881
 31
0.0
  0
LINE
  5
779
330
1F
100
AcDbEntity
  8
STR
100
AcDbLine
 10
1053.714838757294
 20
1220.314172315881
 30
0.0
 11
1103.714838757294
 21
1220.314172315881
 31
0.0
  0
LINE
  5
77A
330
1F
100
AcDbEntity
  8
STR
100
AcDbLine
 10
1053.714838757294
 20
980.3141723158812
 30
0.0
 11
1103.714838757294
 21
980.3141723158811
 31
0.0
  0
LINE
  5
77F
330
1F
100
AcDbEntity
  8
STR
100
AcDbLine
 10
893.7148387572944
 20
820.3141723158809
 30
0.0
 11
893.7148387572943
 21
1400.314172315881
 31
0.0
  0
LINE
  5
780
330
1F
100
AcDbEntity
  8
STR
100
AcDbLine
 10
893.7148387572943
 20
1400.314172315881
 30
0.0
 11
1053.714838757294
 21
1400.314172315881
 31
0.0
  0
LINE
  5
781
330
1F
100
AcDbEntity
  8
STR
100
AcDbLine
 10
893.7148387572943
 20
1380.314172315881
 30
0.0
 11
1053.714838757294
 21
1380.31417231588
 31
0.0
  0
LINE
  5
782
330
1F
100
AcDbEntity
  8
STR
100
AcDbLine
 10
893.7148387572943
 20
1220.314172315881
 30
0.0
 11
703.7148387572942
 21
1220.314172315881
 31
0.0
  0
LINE
  5
785
330
1F
100
AcDbEntity
  8
STR
100
AcDbLine
 10
893.7148387572943
 20
1360.314172315881
 30
0.0
 11
703.7148387572942
 21
1360.314172315881
 31
0.0
  0
LINE
  5
786
330
1F
100
AcDbEntity
  8
STR
100
AcDbLine
 10
893.7148387572941
 20
840.3141723158805
 30
0.0
 11
703.7148387572941
 21
840.3141723158805
 31
0.0
  0
LINE
  5
787
330
1F
100
AcDbEntity
  8
STR
100
AcDbLine
 10
893.7148387572943
 20
980.3141723158805
 30
0.0
 11
703.7148387572942
 21
980.3141723158805
 31
0.0
  0
LINE
  5
788
330
1F
100
AcDbEntity
  8
STR
100
AcDbLine
 10
703.7148387572943
 20
980.3141723158805
 30
0.0
 11
703.7148387572942
 21
840.3141723158807
 31
0.0
  0
LINE
  5
78B
330
1F
100
AcDbEntity
  8
STR
100
AcDbLine
 10
863.714838757294
 20
1220.314172315881
 30
0.0
 11
863.714838757294
 21
980.3141723158816
 31
0.0
  0
LINE
  5
78C
330
1F
100
AcDbEntity
  8
STR
100
AcDbLine
 10
833.7148387572938
 20
1150.314172315881
 30
0.0
 11
833.7148387572938
 21
1050.314172315881
 31
0.0
  0
LINE
  5
78D
330
1F
100
AcDbEntity
  8
STR
100
AcDbLine
 10
833.7148387572936
 20
1150.314172315881
 30
0.0
 11
863.714838757294
 21
1150.314172315881
 31
0.0
  0
LINE
  5
78E
330
1F
100
AcDbEntity
  8
STR
100
AcDbLine
 10
833.7148387572936
 20
1050.31417231588
 30
0.0
 11
863.714838757294
 21
1050.314172315881
 31
0.0
  0
LINE
  5
78F
330
1F
100
AcDbEntity
  8
STR
100
AcDbLine
 10
1093.714838757294
 20
820.3141723158809
 30
0.0
 11
1093.714838757294
 21
980.3141723158811
 31
0.0
  0
LINE
  5
790
330
1F
100
AcDbEntity
  8
STR
100
AcDbLine
 10
1093.714838757294
 20
1220.314172315881
 30
0.0
 11
1093.714838757294
 21
1380.31417231588
 31
0.0
  0
LINE
  5
793
330
1F
100
AcDbEntity
  8
STR
100
AcDbLine
 10
1173.714838757294
 20
670.3141723158812
 30
0.0
 11
1173.714838757294
 21
760.314172315881
 31
0.0
  0
LINE
  5
794
330
1F
100
AcDbEntity
  8
STR
100
AcDbLine
 10
653.7148387572942
 20
705.3141723158812
 30
0.0
 11
2603.714838757293
 21
705.314172315881
 31
0.0
  0
LINE
  5
795
330
1F
100
AcDbEntity
  8
STR
100
AcDbLine
 10
653.7148387572942
 20
606.314172315881
 30
0.0
 11
2603.714838757293
 21
606.314172315881
 31
0.0
  0
LINE
  5
796
330
1F
100
AcDbEntity
  8
STR
100
AcDbLine
 10
663.7148387572944
 20
670.3141723158812
 30
0.0
 11
663.7148387572941
 21
760.314172315881
 31
0.0
  0
LINE
  5
799
330
1F
100
AcDbEntity
  8
STR
100
AcDbLine
 10
663.7148387572942
 20
670.314172315881
 30
0.0
 11
1173.714838757294
 21
670.3141723158812
 31
0.0
  0
LINE
  5
79A
330
1F
100
AcDbEntity
  8
STR
100
AcDbLine
 10
703.7148387572942
 20
820.3141723158809
 30
0.0
 11
1113.714838757294
 21
820.3141723158809
 31
0.0
  0
LINE
  5
79B
330
1F
100
AcDbEntity
  8
STR
100
AcDbLine
 10
1113.714838757294
 20
760.314172315881
 30
0.0
 11
1113.714838757294
 21
820.3141723158809
 31
0.0
  0
LINE
  5
79D
330
1F
100
AcDbEntity
  8
BMK
100
AcDbLine
 10
565.2370721631923
 20
660.8141723158809
 30
0.0
 11
872.0219627684654
 21
660.8141723158809
 31
0.0
  0
LINE
  5
79E
330
1F
100
AcDbEntity
  8
STR
100
AcDbLine
 10
1393.714838757294
 20
800.314172315881
 30
0.0
 11
1393.714838757294
 21
1400.314172315881
 31
0.0
  0
LINE
  5
79F
330
1F
100
AcDbEntity
  8
STR
100
AcDbLine
 10
1893.714838757294
 20
800.314172315881
 30
0.0
 11
1893.714838757294
 21
1400.31417231588
 31
0.0
  0
LINE
  5
7A0
330
1F
100
AcDbEntity
  8
STR
100
AcDbLine
 10
2093.714838757294
 20
800.314172315881
 30
0.0
 11
2093.714838757294
 21
1400.31417231588
 31
0.0
  0
LINE
  5
7A1
330
1F
100
AcDbEntity
  8
STR
100
AcDbLine
 10
2393.714838757294
 20
800.3141723158808
 30
0.0
 11
2393.714838757294
 21
1400.31417231588
 31
0.0
  0
LINE
  5
7A4
330
1F
100
AcDbEntity
  8
STR
100
AcDbLine
 10
613.7148387572942
 20
670.814172315881
 30
0.0
 11
643.7148387572944
 21
670.814172315881
 31
0.0
  0
LINE
  5
7A5
330
1F
100
AcDbEntity
  8
STR
100
AcDbLine
 10
613.7148387572942
 20
650.814172315881
 30
0.0
 11
643.7148387572944
 21
650.814172315881
 31
0.0
  0
LINE
  5
7A8
330
1F
100
AcDbEntity
  8
STR
100
AcDbLine
 10
613.7148387572941
 20
690.814172315881
 30
0.0
 11
643.7148387572944
 21
690.8141723158812
 31
0.0
  0
LINE
  5
7AA
330
1F
100
AcDbEntity
  8
BMK
100
AcDbLine
 10
683.7148387572944
 20
668.2744078155042
 30
0.0
 11
683.7148387572945
 21
760.3141723158814
 31
0.0
  0
LINE
  5
7B1
330
1F
100
AcDbEntity
  8
STR
100
AcDbLine
 10
618.7148387572941
 20
710.8141723158809
 30
0.0
 11
638.7148387572942
 21
710.8141723158809
 31
0.0
  0
LINE
  5
7B5
330
1F
100
AcDbEntity
  8
BMK
100
AcDbLine
 10
661.6440247868085
 20
1290.314172315881
 30
0.0
 11
1125.180330510844
 21
1290.314172315881
 31
0.0
  0
LINE
  5
7B6
330
1F
100
AcDbEntity
  8
BMK
100
AcDbLine
 10
661.6440247868084
 20
910.3141723158808
 30
0.0
 11
1125.180330510844
 21
910.3141723158806
 31
0.0
  0
LINE
  5
7B8
330
1F
100
AcDbEntity
  8
STR
100
AcDbLine
 10
3140.508834433274
 20
576.314172315881
 30
0.0
 11
3640.508834433275
 21
576.314172315881
 31
0.0
  0
LINE
  5
7B9
330
1F
100
AcDbEntity
  8
STR
100
AcDbLine
 10
3140.508834433274
 20
606.314172315881
 30
0.0
 11
3640.508834433275
 21
606.314172315881
 31
0.0
  0
LINE
  5
7BC
330
1F
100
AcDbEntity
  8
STR
100
AcDbLine
 10
3140.508834433274
 20
670.3141723158815
 30
0.0
 11
3258.181463126413
 21
670.3141723158815
 31
0.0
  0
LINE
  5
7BD
330
1F
100
AcDbEntity
  8
STR
100
AcDbLine
 10
3165.508834433275
 20
631.314172315881
 30
0.0
 11
3615.508834433275
 21
631.314172315881
 31
0.0
  0
LINE
  5
7BE
330
1F
100
AcDbEntity
  8
STR
100
AcDbLine
 10
3165.508834433275
 20
656.314172315881
 30
0.0
 11
3615.508834433275
 21
656.314172315881
 31
0.0
  0
LINE
  5
7BF
330
1F
100
AcDbEntity
  8
STR
100
AcDbLine
 10
3140.508834433274
 20
760.314172315881
 30
0.0
 11
3640.508834433276
 21
760.314172315881
 31
0.0
  0
LINE
  5
7C0
330
1F
100
AcDbEntity
  8
STR
100
AcDbLine
 10
3140.508834433274
 20
606.314172315881
 30
0.0
 11
3140.508834433275
 21
576.314172315881
 31
0.0
  0
LINE
  5
7C1
330
1F
100
AcDbEntity
  8
STR
100
AcDbLine
 10
3640.508834433275
 20
606.314172315881
 30
0.0
 11
3640.508834433274
 21
576.314172315881
 31
0.0
  0
LINE
  5
7C2
330
1F
100
AcDbEntity
  8
STR
100
AcDbLine
 10
3140.508834433274
 20
670.3141723158815
 30
0.0
 11
3140.508834433274
 21
760.314172315881
 31
0.0
  0
LINE
  5
7C3
330
1F
100
AcDbEntity
  8
STR
100
AcDbLine
 10
3640.508834433276
 20
670.3141723158815
 30
0.0
 11
3640.508834433277
 21
760.314172315881
 31
0.0
  0
LINE
  5
7C4
330
1F
100
AcDbEntity
  8
STR
100
AcDbLine
 10
3165.508834433273
 20
730.314172315881
 30
0.0
 11
3165.508834433275
 21
576.314172315881
 31
0.0
  0
LINE
  5
7C5
330
1F
100
AcDbEntity
  8
STR
100
AcDbLine
 10
3615.508834433273
 20
730.314172315881
 30
0.0
 11
3615.508834433276
 21
576.314172315881
 31
0.0
  0
LINE
  5
7C6
330
1F
100
AcDbEntity
  8
STR
100
AcDbLine
 10
3140.508834433274
 20
730.314172315881
 30
0.0
 11
3640.508834433276
 21
730.314172315881
 31
0.0
  0
LINE
  5
7C8
330
1F
100
AcDbEntity
  8
STR
100
AcDbLine
 10
3165.508834433273
 20
700.3141723158807
 30
0.0
 11
3615.508834433274
 21
700.314172315881
 31
0.0
  0
LINE
  5
7C9
330
1F
100
AcDbEntity
  8
STR
100
AcDbLine
 10
3180.508834433274
 20
1400.314172315881
 30
0.0
 11
3180.508834433275
 21
880.3141723158812
 31
0.0
  0
LINE
  5
7CA
330
1F
100
AcDbEntity
  8
STR
100
AcDbLine
 10
3600.508834433274
 20
1400.314172315881
 30
0.0
 11
3600.508834433274
 21
880.3141723158828
 31
0.0
  0
CIRCLE
  5
7CB
330
1F
100
AcDbEntity
  8
STR
100
AcDbCircle
 10
3390.508834433274
 20
1100.31417231588
 30
0.0
 40
120.0000000000001
  0
CIRCLE
  5
7CC
330
1F
100
AcDbEntity
  8
STR
100
AcDbCircle
 10
3390.508834433274
 20
1100.31417231588
 30
0.0
 40
49.99999999999989
  0
CIRCLE
  5
7D0
330
1F
100
AcDbEntity
  8
STR
100
AcDbCircle
 10
3390.508834433274
 20
1100.31417231588
 30
0.0
 40
24.99999999999988
  0
LINE
  5
7D2
330
1F
100
AcDbEntity
  8
STR
100
AcDbLine
 10
613.7148387572942
 20
2060.314172315881
 30
0.0
 11
613.7148387572944
 21
2260.314172315881
 31
0.0
  0
LINE
  5
7D6
330
1F
100
AcDbEntity
  8
STR
100
AcDbLine
 10
1173.714838757294
 20
1910.314172315881
 30
0.0
 11
1173.714838757294
 21
2060.314172315881
 31
0.0
  0
LINE
  5
7E8
330
1F
100
AcDbEntity
  8
STR
100
AcDbLine
 10
613.7148387572942
 20
735.3141723158812
 30
0.0
 11
613.7148387572944
 21
576.314172315881
 31
0.0
  0
LINE
  5
7E9
330
1F
100
AcDbEntity
  8
STR
100
AcDbLine
 10
643.7148387572943
 20
576.314172315881
 30
0.0
 11
643.7148387572943
 21
735.314172315881
 31
0.0
  0
LINE
  5
7EB
330
1F
100
AcDbEntity
  8
BMK
100
AcDbLine
 10
628.7148387572942
 20
765.3141723158812
 30
0.0
 11
628.7148387572942
 21
546.314172315881
 31
0.0
  0
LINE
  5
7EC
330
1F
100
AcDbEntity
  8
STR
100
AcDbLine
 10
623.7148387572943
 20
670.814172315881
 30
0.0
 11
623.7148387572942
 21
650.814172315881
 31
0.0
  0
LINE
  5
7ED
330
1F
100
AcDbEntity
  8
STR
100
AcDbLine
 10
633.7148387572944
 20
670.814172315881
 30
0.0
 11
633.7148387572944
 21
650.814172315881
 31
0.0
  0
LINE
  5
7EF
330
1F
100
AcDbEntity
  8
STR
100
AcDbLine
 10
618.7148387572943
 20
710.8141723158809
 30
0.0
 11
618.7148387572944
 21
690.8141723158812
 31
0.0
  0
LINE
  5
7F0
330
1F
100
AcDbEntity
  8
STR
100
AcDbLine
 10
638.7148387572942
 20
710.8141723158809
 30
0.0
 11
638.7148387572942
 21
690.8141723158812
 31
0.0
  0
LINE
  5
7F1
330
1F
100
AcDbEntity
  8
STR
100
AcDbLine
 10
638.7148387572942
 20
610.8141723158812
 30
0.0
 11
638.7148387572942
 21
630.814172315881
 31
0.0
  0
LINE
  5
7F2
330
1F
100
AcDbEntity
  8
STR
100
AcDbLine
 10
618.7148387572943
 20
610.8141723158812
 30
0.0
 11
618.7148387572944
 21
630.814172315881
 31
0.0
  0
LINE
  5
7F3
330
1F
100
AcDbEntity
  8
STR
100
AcDbLine
 10
618.7148387572941
 20
610.8141723158812
 30
0.0
 11
638.7148387572942
 21
610.8141723158812
 31
0.0
  0
LINE
  5
7F4
330
1F
100
AcDbEntity
  8
STR
100
AcDbLine
 10
613.7148387572941
 20
630.8141723158812
 30
0.0
 11
643.7148387572944
 21
630.814172315881
 31
0.0
  0
LINE
  5
7F5
330
1F
100
AcDbEntity
  8
STR
100
AcDbLine
 10
663.7148387572941
 20
760.3141723158812
 30
0.0
 11
663.7148387572941
 21
880.3141723158812
 31
0.0
  0
LINE
  5
7F6
330
1F
100
AcDbEntity
  8
STR
100
AcDbLine
 10
663.7148387572941
 20
880.3141723158812
 30
0.0
 11
703.7148387572942
 21
880.3141723158812
 31
0.0
  0
LINE
  5
7F7
330
1F
100
AcDbEntity
  8
STR
100
AcDbLine
 10
703.7148387572942
 20
880.3141723158812
 30
0.0
 11
703.7148387572941
 21
760.3141723158812
 31
0.0
  0
LINE
  5
7F8
330
1F
100
AcDbEntity
  8
STR
100
AcDbLine
 10
643.7148387572944
 20
1930.314172315881
 30
0.0
 11
643.7148387572944
 21
2390.31417231588
 31
0.0
  0
LINE
  5
7FA
330
1F
100
AcDbEntity
  8
STR
100
AcDbLine
 10
653.7148387572943
 20
1910.314172315881
 30
0.0
 11
653.7148387572943
 21
2410.31417231588
 31
0.0
  0
LINE
  5
7FB
330
1F
100
AcDbEntity
  8
STR
100
AcDbLine
 10
653.7148387572942
 20
2410.31417231588
 30
0.0
 11
2603.714838757293
 21
2410.31417231588
 31
0.0
  0
LINE
  5
7FC
330
1F
100
AcDbEntity
  8
STR
100
AcDbLine
 10
653.7148387572942
 20
1910.314172315881
 30
0.0
 11
2603.714838757293
 21
1910.314172315881
 31
0.0
  0
LINE
  5
7FE
330
1F
100
AcDbEntity
  8
STR
100
AcDbLine
 10
633.7148387572944
 20
1930.31417231588
 30
0.0
 11
633.7148387572942
 21
2390.31417231588
 31
0.0
  0
LINE
  5
7FF
330
1F
100
AcDbEntity
  8
STR
100
AcDbLine
 10
628.7148387572943
 20
2390.31417231588
 30
0.0
 11
643.7148387572944
 21
2390.314172315881
 31
0.0
  0
LINE
  5
800
330
1F
100
AcDbEntity
  8
STR
100
AcDbLine
 10
628.7148387572945
 20
1930.31417231588
 30
0.0
 11
643.7148387572944
 21
1930.314172315881
 31
0.0
  0
LINE
  5
805
330
1F
100
AcDbEntity
  8
STR
100
AcDbLine
 10
628.7148387572945
 20
2390.31417231588
 30
0.0
 11
613.7148387572944
 21
2260.314172315881
 31
0.0
  0
LINE
  5
806
330
1F
100
AcDbEntity
  8
STR
100
AcDbLine
 10
628.7148387572945
 20
1930.314172315881
 30
0.0
 11
613.7148387572944
 21
2060.314172315881
 31
0.0
  0
LINE
  5
808
330
1F
100
AcDbEntity
  8
STR
100
AcDbLine
 10
703.7148387572943
 20
2030.31417231588
 30
0.0
 11
703.7148387572943
 21
2290.31417231588
 31
0.0
  0
LINE
  5
80A
330
1F
100
AcDbEntity
  8
STR
100
AcDbLine
 10
1053.714838757294
 20
2000.314172315881
 30
0.0
 11
1053.714838757294
 21
2320.314172315879
 31
0.0
  0
LINE
  5
80D
330
1F
100
AcDbEntity
  8
STR
100
AcDbLine
 10
1143.714838757294
 20
2260.31417231588
 30
0.0
 11
1223.714838757294
 21
2260.314172315881
 31
0.0
  0
LINE
  5
80E
330
1F
100
AcDbEntity
  8
STR
100
AcDbLine
 10
1143.714838757294
 20
2060.314172315881
 30
0.0
 11
1223.714838757294
 21
2060.314172315881
 31
0.0
  0
LINE
  5
80F
330
1F
100
AcDbEntity
  8
STR
100
AcDbLine
 10
1143.714838757294
 20
2260.31417231588
 30
0.0
 11
1143.714838757294
 21
2060.314172315881
 31
0.0
  0
LINE
  5
810
330
1F
100
AcDbEntity
  8
STR
100
AcDbLine
 10
1223.714838757294
 20
2260.314172315881
 30
0.0
 11
1223.714838757294
 21
2060.314172315881
 31
0.0
  0
LINE
  5
811
330
1F
100
AcDbEntity
  8
STR
100
AcDbLine
 10
1173.714838757294
 20
2260.31417231588
 30
0.0
 11
1173.714838757293
 21
2410.31417231588
 31
0.0
  0
LINE
  5
812
330
1F
100
AcDbEntity
  8
STR
100
AcDbLine
 10
1113.714838757295
 20
2000.314172315881
 30
0.0
 11
1113.714838757295
 21
2320.31417231588
 31
0.0
  0
LINE
  5
813
330
1F
100
AcDbEntity
  8
STR
100
AcDbLine
 10
1093.714838757294
 20
2000.314172315881
 30
0.0
 11
1093.714838757294
 21
2320.31417231588
 31
0.0
  0
LINE
  5
814
330
1F
100
AcDbEntity
  8
STR
100
AcDbLine
 10
873.7148387572942
 20
2320.314172315879
 30
0.0
 11
1113.714838757295
 21
2320.31417231588
 31
0.0
  0
LINE
  5
816
330
1F
100
AcDbEntity
  8
STR
100
AcDbLine
 10
893.7148387572941
 20
2000.314172315881
 30
0.0
 11
893.7148387572943
 21
2320.314172315879
 31
0.0
  0
LINE
  5
817
330
1F
100
AcDbEntity
  8
STR
100
AcDbLine
 10
873.714838757294
 20
2000.314172315881
 30
0.0
 11
873.714838757294
 21
2320.314172315879
 31
0.0
  0
LINE
  5
818
330
1F
100
AcDbEntity
  8
STR
100
AcDbLine
 10
703.7148387572943
 20
2290.314172315881
 30
0.0
 11
893.7148387572941
 21
2290.31417231588
 31
0.0
  0
LINE
  5
819
330
1F
100
AcDbEntity
  8
STR
100
AcDbLine
 10
703.7148387572943
 20
2030.31417231588
 30
0.0
 11
893.7148387572941
 21
2030.31417231588
 31
0.0
  0
LINE
  5
81A
330
1F
100
AcDbEntity
  8
STR
100
AcDbLine
 10
873.714838757295
 20
2000.314172315881
 30
0.0
 11
1113.714838757295
 21
2000.314172315881
 31
0.0
  0
LINE
  5
81B
330
1F
100
AcDbEntity
  8
STR
100
AcDbLine
 10
1233.714838757294
 20
2300.314172315881
 30
0.0
 11
1233.714838757294
 21
2020.314172315881
 31
0.0
  0
LINE
  5
81C
330
1F
100
AcDbEntity
  8
STR
100
AcDbLine
 10
1263.714838757294
 20
2300.314172315881
 30
0.0
 11
1263.714838757294
 21
2020.314172315881
 31
0.0
  0
LINE
  5
81E
330
1F
100
AcDbEntity
  8
STR
100
AcDbLine
 10
1233.714838757293
 20
2300.314172315881
 30
0.0
 11
1263.714838757294
 21
2300.314172315881
 31
0.0
  0
LINE
  5
81F
330
1F
100
AcDbEntity
  8
STR
100
AcDbLine
 10
1233.714838757294
 20
2020.314172315881
 30
0.0
 11
1263.714838757294
 21
2020.314172315881
 31
0.0
  0
CIRCLE
  5
820
330
1F
100
AcDbEntity
  8
STR
100
AcDbCircle
 10
683.7148387572944
 20
2370.314172315881
 30
0.0
 40
20.0
  0
CIRCLE
  5
821
330
1F
100
AcDbEntity
  8
STR
100
AcDbCircle
 10
683.7148387572944
 20
2260.31417231588
 30
0.0
 40
20.0
  0
CIRCLE
  5
822
330
1F
100
AcDbEntity
  8
STR
100
AcDbCircle
 10
683.7148387572944
 20
2060.31417231588
 30
0.0
 40
20.0
  0
CIRCLE
  5
823
330
1F
100
AcDbEntity
  8
STR
100
AcDbCircle
 10
683.7148387572944
 20
1950.31417231588
 30
0.0
 40
20.0
  0
LINE
  5
825
330
1F
100
AcDbEntity
  8
BMK
100
AcDbLine
 10
683.7148387572944
 20
2220.31417231588
 30
0.0
 11
683.7148387572944
 21
2300.31417231588
 31
0.0
  0
LINE
  5
826
330
1F
100
AcDbEntity
  8
BMK
100
AcDbLine
 10
723.7148387572943
 20
2260.31417231588
 30
0.0
 11
643.7148387572944
 21
2260.31417231588
 31
0.0
  0
LINE
  5
827
330
1F
100
AcDbEntity
  8
BMK
100
AcDbLine
 10
723.7148387572943
 20
2060.31417231588
 30
0.0
 11
643.7148387572944
 21
2060.31417231588
 31
0.0
  0
LINE
  5
828
330
1F
100
AcDbEntity
  8
BMK
100
AcDbLine
 10
683.7148387572944
 20
2020.31417231588
 30
0.0
 11
683.7148387572944
 21
2100.31417231588
 31
0.0
  0
LINE
  5
829
330
1F
100
AcDbEntity
  8
BMK
100
AcDbLine
 10
683.7148387572944
 20
1910.31417231588
 30
0.0
 11
683.7148387572944
 21
1990.31417231588
 31
0.0
  0
LINE
  5
82A
330
1F
100
AcDbEntity
  8
BMK
100
AcDbLine
 10
723.7148387572943
 20
1950.31417231588
 30
0.0
 11
643.7148387572944
 21
1950.31417231588
 31
0.0
  0
LINE
  5
82B
330
1F
100
AcDbEntity
  8
STR
100
AcDbLine
 10
1473.714838757294
 20
2040.31417231588
 30
0.0
 11
1473.714838757294
 21
2280.31417231588
 31
0.0
  0
LINE
  5
82C
330
1F
100
AcDbEntity
  8
STR
100
AcDbLine
 10
1173.714838757293
 20
2380.31417231588
 30
0.0
 11
2603.714838757293
 21
2380.31417231588
 31
0.0
  0
LINE
  5
82D
330
1F
100
AcDbEntity
  8
STR
100
AcDbLine
 10
1173.714838757294
 20
1940.31417231588
 30
0.0
 11
2603.714838757293
 21
1940.314172315881
 31
0.0
  0
LINE
  5
830
330
1F
100
AcDbEntity
  8
STR
100
AcDbLine
 10
1173.714838757294
 20
2280.31417231588
 30
0.0
 11
1233.714838757294
 21
2280.31417231588
 31
0.0
  0
LINE
  5
831
330
1F
100
AcDbEntity
  8
STR
100
AcDbLine
 10
1173.714838757294
 20
2310.314172315881
 30
0.0
 11
2603.714838757293
 21
2310.31417231588
 31
0.0
  0
LINE
  5
832
330
1F
100
AcDbEntity
  8
STR
100
AcDbLine
 10
1173.714838757294
 20
2010.314172315881
 30
0.0
 11
2603.714838757293
 21
2010.314172315881
 31
0.0
  0
LINE
  5
833
330
1F
100
AcDbEntity
  8
STR
100
AcDbLine
 10
1173.714838757294
 20
2040.31417231588
 30
0.0
 11
1233.714838757294
 21
2040.31417231588
 31
0.0
  0
LINE
  5
85B
330
1F
100
AcDbEntity
  8
STR
100
AcDbLine
 10
1953.714838757293
 20
1910.314172315881
 30
0.0
 11
1953.714838757293
 21
2410.31417231588
 31
0.0
  0
LINE
  5
85C
330
1F
100
AcDbEntity
  8
STR
100
AcDbLine
 10
2403.714838757293
 20
1910.314172315881
 30
0.0
 11
2403.714838757293
 21
2410.31417231588
 31
0.0
  0
LINE
  5
85D
330
1F
100
AcDbEntity
  8
STR
100
AcDbLine
 10
2603.714838757293
 20
1910.314172315881
 30
0.0
 11
2603.714838757293
 21
2410.31417231588
 31
0.0
  0
ARC
  5
87E
330
1F
100
AcDbEntity
  8
STR
100
AcDbCircle
 10
2543.714838757294
 20
1385.31417231588
 30
0.0
 40
15.0
100
AcDbArc
 50
270.0
 51
90.0
  0
ARC
  5
87F
330
1F
100
AcDbEntity
  8
STR
100
AcDbCircle
 10
2543.714838757294
 20
1355.31417231588
 30
0.0
 40
15.0
100
AcDbArc
 50
270.0
 51
90.0
  0
ARC
  5
880
330
1F
100
AcDbEntity
  8
STR
100
AcDbCircle
 10
2543.714838757294
 20
1325.31417231588
 30
0.0
 40
15.0
100
AcDbArc
 50
270.0
 51
90.0
  0
ARC
  5
881
330
1F
100
AcDbEntity
  8
STR
100
AcDbCircle
 10
2543.714838757294
 20
1295.31417231588
 30
0.0
 40
15.0
100
AcDbArc
 50
270.0
 51
90.0
  0
ARC
  5
882
330
1F
100
AcDbEntity
  8
STR
100
AcDbCircle
 10
2543.714838757294
 20
1265.31417231588
 30
0.0
 40
15.0
100
AcDbArc
 50
270.0
 51
90.0
  0
ARC
  5
883
330
1F
100
AcDbEntity
  8
STR
100
AcDbCircle
 10
2543.714838757294
 20
1235.31417231588
 30
0.0
 40
15.0
100
AcDbArc
 50
270.0
 51
90.0
  0
ARC
  5
884
330
1F
100
AcDbEntity
  8
STR
100
AcDbCircle
 10
2543.714838757294
 20
1205.31417231588
 30
0.0
 40
15.0
100
AcDbArc
 50
270.0
 51
90.0
  0
ARC
  5
885
330
1F
100
AcDbEntity
  8
STR
100
AcDbCircle
 10
2543.714838757294
 20
1175.31417231588
 30
0.0
 40
15.0
100
AcDbArc
 50
270.0
 51
90.0
  0
ARC
  5
886
330
1F
100
AcDbEntity
  8
STR
100
AcDbCircle
 10
2543.714838757294
 20
1145.31417231588
 30
0.0
 40
15.0
100
AcDbArc
 50
270.0
 51
90.0
  0
ARC
  5
887
330
1F
100
AcDbEntity
  8
STR
100
AcDbCircle
 10
2543.714838757294
 20
1115.31417231588
 30
0.0
 40
15.0
100
AcDbArc
 50
270.0
 51
90.0
  0
ARC
  5
888
330
1F
100
AcDbEntity
  8
STR
100
AcDbCircle
 10
2543.714838757294
 20
1085.31417231588
 30
0.0
 40
15.0
100
AcDbArc
 50
270.0
 51
90.0
  0
ARC
  5
889
330
1F
100
AcDbEntity
  8
STR
100
AcDbCircle
 10
2543.714838757294
 20
1055.31417231588
 30
0.0
 40
15.0
100
AcDbArc
 50
270.0
 51
90.0
  0
ARC
  5
88A
330
1F
100
AcDbEntity
  8
STR
100
AcDbCircle
 10
2543.714838757294
 20
1025.31417231588
 30
0.0
 40
15.0
100
AcDbArc
 50
270.0
 51
90.0
  0
ARC
  5
88B
330
1F
100
AcDbEntity
  8
STR
100
AcDbCircle
 10
2543.714838757294
 20
995.3141723158806
 30
0.0
 40
15.0
100
AcDbArc
 50
270.0
 51
90.0
  0
ARC
  5
88C
330
1F
100
AcDbEntity
  8
STR
100
AcDbCircle
 10
2543.714838757294
 20
965.3141723158805
 30
0.0
 40
15.0
100
AcDbArc
 50
270.0
 51
90.0
  0
ARC
  5
88D
330
1F
100
AcDbEntity
  8
STR
100
AcDbCircle
 10
2543.714838757294
 20
935.3141723158806
 30
0.0
 40
15.0
100
AcDbArc
 50
270.0
 51
90.0
  0
ARC
  5
88E
330
1F
100
AcDbEntity
  8
STR
100
AcDbCircle
 10
2543.714838757294
 20
905.3141723158805
 30
0.0
 40
15.0
100
AcDbArc
 50
270.0
 51
90.0
  0
ARC
  5
88F
330
1F
100
AcDbEntity
  8
STR
100
AcDbCircle
 10
2543.714838757294
 20
875.3141723158805
 30
0.0
 40
15.0
100
AcDbArc
 50
270.0
 51
90.0
  0
ARC
  5
890
330
1F
100
AcDbEntity
  8
STR
100
AcDbCircle
 10
2543.714838757294
 20
845.3141723158806
 30
0.0
 40
15.0
100
AcDbArc
 50
270.0
 51
90.0
  0
ARC
  5
891
330
1F
100
AcDbEntity
  8
STR
100
AcDbCircle
 10
2543.714838757294
 20
815.3141723158805
 30
0.0
 40
15.0
100
AcDbArc
 50
270.0
 51
90.0
  0
LINE
  5
896
330
1F
100
AcDbEntity
  8
STR
100
AcDbLine
 10
703.7148387572943
 20
2175.314172315881
 30
0.0
 11
893.7148387572944
 21
2175.314172315881
 31
0.0
  0
LINE
  5
897
330
1F
100
AcDbEntity
  8
STR
100
AcDbLine
 10
703.7148387572943
 20
2145.31417231588
 30
0.0
 11
893.7148387572943
 21
2145.314172315881
 31
0.0
  0
LINE
  5
89C
330
1F
100
AcDbEntity
  8
STR
100
AcDbLine
 10
626.0198660861277
 20
2250.31417231588
 30
0.0
 11
1113.714838757295
 21
2250.314172315881
 31
0.0
  0
LINE
  5
89D
330
1F
100
AcDbEntity
  8
STR
100
AcDbLine
 10
626.0198660861277
 20
2070.314172315881
 30
0.0
 11
1113.714838757295
 21
2070.314172315881
 31
0.0
  0
LINE
  5
89F
330
1F
100
AcDbEntity
  8
STR
100
AcDbLine
 10
1263.714838757294
 20
2280.31417231588
 30
0.0
 11
2403.714838757293
 21
2280.314172315879
 31
0.0
  0
LINE
  5
8A0
330
1F
100
AcDbEntity
  8
STR
100
AcDbLine
 10
1263.714838757294
 20
2040.31417231588
 30
0.0
 11
2403.714838757293
 21
2040.314172315881
 31
0.0
  0
LINE
  5
8A1
330
1F
100
AcDbEntity
  8
BMK
100
AcDbLine
 10
1553.714838757294
 20
2330.314172315881
 30
0.0
 11
1553.714838757294
 21
2410.314172315881
 31
0.0
  0
LINE
  5
8A2
330
1F
100
AcDbEntity
  8
BMK
100
AcDbLine
 10
1593.714838757294
 20
2370.314172315881
 30
0.0
 11
1513.714838757294
 21
2370.314172315881
 31
0.0
  0
LINE
  5
8A3
330
1F
100
AcDbEntity
  8
BMK
100
AcDbLine
 10
1593.714838757294
 20
2260.31417231588
 30
0.0
 11
1513.714838757294
 21
2260.31417231588
 31
0.0
  0
LINE
  5
8A4
330
1F
100
AcDbEntity
  8
BMK
100
AcDbLine
 10
1553.714838757294
 20
2220.31417231588
 30
0.0
 11
1553.714838757294
 21
2300.31417231588
 31
0.0
  0
LINE
  5
8A5
330
1F
100
AcDbEntity
  8
BMK
100
AcDbLine
 10
1593.714838757294
 20
2060.31417231588
 30
0.0
 11
1513.714838757294
 21
2060.31417231588
 31
0.0
  0
LINE
  5
8A6
330
1F
100
AcDbEntity
  8
BMK
100
AcDbLine
 10
1553.714838757294
 20
2020.31417231588
 30
0.0
 11
1553.714838757294
 21
2100.31417231588
 31
0.0
  0
LINE
  5
8A7
330
1F
100
AcDbEntity
  8
BMK
100
AcDbLine
 10
1593.714838757294
 20
1950.31417231588
 30
0.0
 11
1513.714838757294
 21
1950.31417231588
 31
0.0
  0
LINE
  5
8A8
330
1F
100
AcDbEntity
  8
BMK
100
AcDbLine
 10
1553.714838757294
 20
1910.31417231588
 30
0.0
 11
1553.714838757294
 21
1990.31417231588
 31
0.0
  0
LINE
  5
8A9
330
1F
100
AcDbEntity
  8
BMK
100
AcDbLine
 10
2073.714838757294
 20
2370.314172315881
 30
0.0
 11
1993.714838757293
 21
2370.314172315881
 31
0.0
  0
LINE
  5
8AA
330
1F
100
AcDbEntity
  8
BMK
100
AcDbLine
 10
2033.714838757294
 20
2330.314172315881
 30
0.0
 11
2033.714838757294
 21
2410.314172315881
 31
0.0
  0
LINE
  5
8AB
330
1F
100
AcDbEntity
  8
BMK
100
AcDbLine
 10
2033.714838757294
 20
2220.314172315881
 30
0.0
 11
2033.714838757294
 21
2300.31417231588
 31
0.0
  0
LINE
  5
8AC
330
1F
100
AcDbEntity
  8
BMK
100
AcDbLine
 10
2073.714838757294
 20
2260.31417231588
 30
0.0
 11
1993.714838757293
 21
2260.31417231588
 31
0.0
  0
LINE
  5
8AD
330
1F
100
AcDbEntity
  8
BMK
100
AcDbLine
 10
2033.714838757294
 20
1910.31417231588
 30
0.0
 11
2033.714838757294
 21
1990.31417231588
 31
0.0
  0
LINE
  5
8AE
330
1F
100
AcDbEntity
  8
BMK
100
AcDbLine
 10
2073.714838757294
 20
1950.31417231588
 30
0.0
 11
1993.714838757293
 21
1950.31417231588
 31
0.0
  0
LINE
  5
8AF
330
1F
100
AcDbEntity
  8
BMK
100
AcDbLine
 10
2033.714838757294
 20
2020.314172315881
 30
0.0
 11
2033.714838757294
 21
2100.31417231588
 31
0.0
  0
LINE
  5
8B0
330
1F
100
AcDbEntity
  8
BMK
100
AcDbLine
 10
2073.714838757294
 20
2060.31417231588
 30
0.0
 11
1993.714838757293
 21
2060.31417231588
 31
0.0
  0
LINE
  5
8B1
330
1F
100
AcDbEntity
  8
BMK
100
AcDbLine
 10
2483.714838757293
 20
2330.314172315881
 30
0.0
 11
2483.714838757293
 21
2410.314172315881
 31
0.0
  0
LINE
  5
8B2
330
1F
100
AcDbEntity
  8
BMK
100
AcDbLine
 10
2523.714838757294
 20
2370.314172315881
 30
0.0
 11
2443.714838757294
 21
2370.314172315881
 31
0.0
  0
LINE
  5
8B3
330
1F
100
AcDbEntity
  8
BMK
100
AcDbLine
 10
2523.714838757294
 20
1950.31417231588
 30
0.0
 11
2443.714838757294
 21
1950.31417231588
 31
0.0
  0
LINE
  5
8B4
330
1F
100
AcDbEntity
  8
BMK
100
AcDbLine
 10
2483.714838757293
 20
1910.31417231588
 30
0.0
 11
2483.714838757293
 21
1990.31417231588
 31
0.0
  0
LINE
  5
8C0
330
1F
100
AcDbEntity
  8
STR
100
AcDbLine
 10
3160.508834433274
 20
880.3141723158812
 30
0.0
 11
3160.508834433274
 21
760.314172315881
 31
0.0
  0
LINE
  5
8C1
330
1F
100
AcDbEntity
  8
STR
100
AcDbLine
 10
3200.508834433273
 20
880.3141723158812
 30
0.0
 11
3200.508834433273
 21
760.314172315881
 31
0.0
  0
LINE
  5
8C3
330
1F
100
AcDbEntity
  8
STR
100
AcDbLine
 10
3270.508834433274
 20
880.3141723158812
 30
0.0
 11
3270.508834433274
 21
760.314172315881
 31
0.0
  0
LINE
  5
8C4
330
1F
100
AcDbEntity
  8
STR
100
AcDbLine
 10
3310.508834433274
 20
880.3141723158812
 30
0.0
 11
3310.508834433274
 21
760.314172315881
 31
0.0
  0
LINE
  5
8C5
330
1F
100
AcDbEntity
  8
STR
100
AcDbLine
 10
3160.508834433275
 20
880.3141723158812
 30
0.0
 11
3200.508834433273
 21
880.3141723158811
 31
0.0
  0
LINE
  5
8C6
330
1F
100
AcDbEntity
  8
STR
100
AcDbLine
 10
3270.508834433274
 20
880.3141723158811
 30
0.0
 11
3310.508834433274
 21
880.3141723158812
 31
0.0
  0
LINE
  5
8C7
330
1F
100
AcDbEntity
  8
STR
100
AcDbLine
 10
3510.508834433275
 20
880.3141723158821
 30
0.0
 11
3470.508834433275
 21
880.314172315882
 31
0.0
  0
LINE
  5
8C8
330
1F
100
AcDbEntity
  8
STR
100
AcDbLine
 10
3620.508834433274
 20
880.3141723158832
 30
0.0
 11
3580.508834433276
 21
880.3141723158828
 31
0.0
  0
LINE
  5
8C9
330
1F
100
AcDbEntity
  8
STR
100
AcDbLine
 10
3470.508834433275
 20
880.314172315882
 30
0.0
 11
3470.508834433275
 21
760.3141723158814
 31
0.0
  0
LINE
  5
8CA
330
1F
100
AcDbEntity
  8
STR
100
AcDbLine
 10
3510.508834433275
 20
880.3141723158823
 30
0.0
 11
3510.508834433275
 21
760.3141723158819
 31
0.0
  0
LINE
  5
8CB
330
1F
100
AcDbEntity
  8
STR
100
AcDbLine
 10
3580.508834433276
 20
880.3141723158828
 30
0.0
 11
3580.508834433277
 21
760.3141723158824
 31
0.0
  0
LINE
  5
8CC
330
1F
100
AcDbEntity
  8
STR
100
AcDbLine
 10
3620.508834433275
 20
880.3141723158832
 30
0.0
 11
3620.508834433276
 21
760.3141723158828
 31
0.0
  0
LINE
  5
8CD
330
1F
100
AcDbEntity
  8
STR
100
AcDbLine
 10
3420.508834433274
 20
1220.314172315881
 30
0.0
 11
3420.508834433274
 21
1360.314172315881
 31
0.0
  0
LINE
  5
8CE
330
1F
100
AcDbEntity
  8
STR
100
AcDbLine
 10
3560.508834433274
 20
1220.314172315881
 30
0.0
 11
3420.508834433274
 21
1220.314172315881
 31
0.0
  0
LINE
  5
8CF
330
1F
100
AcDbEntity
  8
STR
100
AcDbLine
 10
3560.508834433274
 20
1360.314172315881
 30
0.0
 11
3420.508834433274
 21
1360.314172315881
 31
0.0
  0
LINE
  5
8D2
330
1F
100
AcDbEntity
  8
STR
100
AcDbLine
 10
3560.508834433274
 20
1220.314172315881
 30
0.0
 11
3560.508834433274
 21
1360.314172315881
 31
0.0
  0
LINE
  5
8D3
330
1F
100
AcDbEntity
  8
STR
100
AcDbLine
 10
3180.508834433275
 20
1400.314172315881
 30
0.0
 11
3600.508834433274
 21
1400.314172315881
 31
0.0
  0
LINE
  5
8D9
330
1F
100
AcDbEntity
  8
BMK
100
AcDbLine
 10
3610.508834433274
 20
1290.314172315881
 30
0.0
 11
3170.508834433274
 21
1290.314172315881
 31
0.0
  0
LINE
  5
8DA
330
1F
100
AcDbEntity
  8
BMK
100
AcDbLine
 10
3490.508834433274
 20
1410.314172315881
 30
0.0
 11
3490.508834433274
 21
1170.314172315881
 31
0.0
  0
LINE
  5
8DB
330
1F
100
AcDbEntity
  8
BMK
100
AcDbLine
 10
3290.508834433274
 20
1410.314172315881
 30
0.0
 11
3290.508834433274
 21
1170.314172315881
 31
0.0
  0
LINE
  5
8DD
330
1F
100
AcDbEntity
  8
STR
100
AcDbLine
 10
3220.508834433274
 20
1220.314172315881
 30
0.0
 11
3220.508834433274
 21
1360.314172315881
 31
0.0
  0
LINE
  5
8DE
330
1F
100
AcDbEntity
  8
STR
100
AcDbLine
 10
3220.508834433273
 20
1360.314172315881
 30
0.0
 11
3360.508834433274
 21
1360.314172315881
 31
0.0
  0
LINE
  5
8DF
330
1F
100
AcDbEntity
  8
STR
100
AcDbLine
 10
3220.508834433273
 20
1220.314172315881
 30
0.0
 11
3360.508834433274
 21
1220.314172315881
 31
0.0
  0
LINE
  5
8E0
330
1F
100
AcDbEntity
  8
STR
100
AcDbLine
 10
3360.508834433274
 20
1220.314172315881
 30
0.0
 11
3360.508834433274
 21
1360.314172315881
 31
0.0
  0
LINE
  5
8E1
330
1F
100
AcDbEntity
  8
STR
100
AcDbLine
 10
3360.508834433274
 20
980.31417231588
 30
0.0
 11
3360.508834433274
 21
840.3141723158803
 31
0.0
  0
LINE
  5
8E2
330
1F
100
AcDbEntity
  8
STR
100
AcDbLine
 10
3220.508834433273
 20
980.31417231588
 30
0.0
 11
3360.508834433274
 21
980.31417231588
 31
0.0
  0
LINE
  5
8E3
330
1F
100
AcDbEntity
  8
STR
100
AcDbLine
 10
3220.508834433273
 20
840.3141723158801
 30
0.0
 11
3360.508834433274
 21
840.3141723158801
 31
0.0
  0
LINE
  5
8E4
330
1F
100
AcDbEntity
  8
STR
100
AcDbLine
 10
3220.508834433274
 20
980.31417231588
 30
0.0
 11
3220.508834433274
 21
840.3141723158803
 31
0.0
  0
LINE
  5
8E5
330
1F
100
AcDbEntity
  8
BMK
100
AcDbLine
 10
3290.508834433274
 20
880.3141723158811
 30
0.0
 11
3290.508834433274
 21
1030.31417231588
 31
0.0
  0
LINE
  5
8E6
330
1F
100
AcDbEntity
  8
BMK
100
AcDbLine
 10
3490.508834433274
 20
880.3141723158823
 30
0.0
 11
3490.508834433274
 21
1030.31417231588
 31
0.0
  0
LINE
  5
8E7
330
1F
100
AcDbEntity
  8
BMK
100
AcDbLine
 10
3610.508834433274
 20
910.3141723158801
 30
0.0
 11
3170.508834433274
 21
910.3141723158801
 31
0.0
  0
LINE
  5
8E8
330
1F
100
AcDbEntity
  8
STR
100
AcDbLine
 10
3560.508834433274
 20
980.31417231588
 30
0.0
 11
3560.508834433274
 21
840.3141723158803
 31
0.0
  0
LINE
  5
8E9
330
1F
100
AcDbEntity
  8
STR
100
AcDbLine
 10
3560.508834433274
 20
840.3141723158801
 30
0.0
 11
3420.508834433274
 21
840.3141723158801
 31
0.0
  0
LINE
  5
8EA
330
1F
100
AcDbEntity
  8
STR
100
AcDbLine
 10
3560.508834433274
 20
980.31417231588
 30
0.0
 11
3420.508834433274
 21
980.31417231588
 31
0.0
  0
LINE
  5
8EB
330
1F
100
AcDbEntity
  8
STR
100
AcDbLine
 10
3420.508834433274
 20
980.31417231588
 30
0.0
 11
3420.508834433274
 21
840.3141723158803
 31
0.0
  0
LINE
  5
8EC
330
1F
100
AcDbEntity
  8
STR
100
AcDbLine
 10
3200.508834433274
 20
820.3141723158809
 30
0.0
 11
3270.508834433274
 21
820.3141723158809
 31
0.0
  0
LINE
  5
8ED
330
1F
100
AcDbEntity
  8
STR
100
AcDbLine
 10
3510.508834433275
 20
820.3141723158809
 30
0.0
 11
3580.508834433276
 21
820.3141723158809
 31
0.0
  0
LINE
  5
8EE
330
1F
100
AcDbEntity
  8
STR
100
AcDbLine
 10
3310.508834433274
 20
820.3141723158809
 30
0.0
 11
3470.508834433275
 21
820.3141723158809
 31
0.0
  0
LINE
  5
8F1
330
1F
100
AcDbEntity
  8
STR
100
AcDbLine
 10
923.7148387572942
 20
1480.314172315881
 30
0.0
 11
1023.714838757294
 21
1480.31417231588
 31
0.0
  0
LINE
  5
8F2
330
1F
100
AcDbEntity
  8
STR
100
AcDbLine
 10
923.7148387572942
 20
1420.31417231588
 30
0.0
 11
1023.714838757294
 21
1420.31417231588
 31
0.0
  0
LINE
  5
8F4
330
1F
100
AcDbEntity
  8
STR
100
AcDbLine
 10
923.7148387572942
 20
1420.31417231588
 30
0.0
 11
923.7148387572942
 21
1480.31417231588
 31
0.0
  0
LINE
  5
8F5
330
1F
100
AcDbEntity
  8
STR
100
AcDbLine
 10
1023.714838757294
 20
1420.31417231588
 30
0.0
 11
1023.714838757294
 21
1480.31417231588
 31
0.0
  0
LINE
  5
8F6
330
1F
100
AcDbEntity
  8
STR
100
AcDbLine
 10
943.7148387572943
 20
1400.314172315881
 30
0.0
 11
943.7148387572941
 21
1420.31417231588
 31
0.0
  0
LINE
  5
8F7
330
1F
100
AcDbEntity
  8
STR
100
AcDbLine
 10
1003.714838757294
 20
1400.314172315881
 30
0.0
 11
1003.714838757294
 21
1420.31417231588
 31
0.0
  0
LINE
  5
8FC
330
1F
100
AcDbEntity
  8
STR
100
AcDbLine
 10
3280.508834433275
 20
1420.31417231588
 30
0.0
 11
3500.508834433274
 21
1420.314172315881
 31
0.0
  0
LINE
  5
8FD
330
1F
100
AcDbEntity
  8
STR
100
AcDbLine
 10
3280.508834433275
 20
1480.314172315881
 30
0.0
 11
3500.508834433274
 21
1480.31417231588
 31
0.0
  0
LINE
  5
8FE
330
1F
100
AcDbEntity
  8
STR
100
AcDbLine
 10
3310.508834433274
 20
1400.314172315881
 30
0.0
 11
3310.508834433274
 21
1420.31417231588
 31
0.0
  0
LINE
  5
8FF
330
1F
100
AcDbEntity
  8
STR
100
AcDbLine
 10
3470.508834433274
 20
1400.314172315881
 30
0.0
 11
3470.508834433274
 21
1420.31417231588
 31
0.0
  0
LINE
  5
900
330
1F
100
AcDbEntity
  8
STR
100
AcDbLine
 10
3500.508834433274
 20
1420.31417231588
 30
0.0
 11
3500.508834433274
 21
1480.31417231588
 31
0.0
  0
LINE
  5
901
330
1F
100
AcDbEntity
  8
STR
100
AcDbLine
 10
3280.508834433274
 20
1420.31417231588
 30
0.0
 11
3280.508834433274
 21
1480.31417231588
 31
0.0
  0
LINE
  5
A8A
330
1F
100
AcDbEntity
  8
STR
100
AcDbLine
 10
2603.714838757293
 20
735.314172315881
 30
0.0
 11
2603.714838757294
 21
576.314172315881
 31
0.0
  0
LINE
  5
CA5
330
1F
100
AcDbEntity
  8
STR
100
AcDbLine
 10
2226.218030560418
 20
1400.314172315881
 30
0.0
 11
2133.496604666738
 21
1506.711371129657
 31
0.0
  0
LINE
  5
CA6
330
1F
100
AcDbEntity
  8
STR
100
AcDbLine
 10
1797.851943275085
 20
1506.711371129657
 30
0.0
 11
2133.496604666738
 21
1506.711371129657
 31
0.0
1001
ACAD
1000
DSTYLE
1002
{
1070
     5
1000
NONE
1070
    77
1070
     0
1070
   147
1040
0.625
1002
}
  0
TEXT
  5
CA7
330
1F
100
AcDbEntity
  8
STR
100
AcDbText
 10
1824.212374767272
 20
1522.119605796219
 30
0.0
 40
30.0
  1
MAXφ600鋼管
100
AcDbText
  0
LINE
  5
DD2
330
1F
100
AcDbEntity
  8
BMK
100
AcDbLine
 10
3180.508834433275
 20
910.3141723158801
 30
0.0
 11
3180.218089125853
 21
880.3141723158812
 31
0.0
  0
LINE
  5
DD3
330
1F
100
AcDbEntity
  8
BMK
100
AcDbLine
 10
3290.508834433274
 20
910.3141723158801
 30
0.0
 11
3290.218089125851
 21
880.3141723158812
 31
0.0
  0
LINE
  5
DD5
330
1F
100
AcDbEntity
  8
BMK
100
AcDbLine
 10
3490.508834433276
 20
910.3141723158808
 30
0.0
 11
3490.799579740698
 21
880.3141723158821
 31
0.0
  0
LINE
  5
DD6
330
1F
100
AcDbEntity
  8
BMK
100
AcDbLine
 10
3490.508834433276
 20
880.3141723158823
 30
0.0
 11
3490.508834433274
 21
1030.31417231588
 31
0.0
  0
LINE
  5
DD7
330
1F
100
AcDbEntity
  8
BMK
100
AcDbLine
 10
3600.508834433275
 20
910.3141723158815
 30
0.0
 11
3600.799579740698
 21
880.3141723158828
 31
0.0
  0
LINE
  5
DE8
330
1F
100
AcDbEntity
  8
STR
100
AcDbLine
 10
2403.714838757294
 20
735.314172315881
 30
0.0
 11
2403.714838757295
 21
576.314172315881
 31
0.0
  0
LINE
  5
DE9
330
1F
100
AcDbEntity
  8
STR
100
AcDbLine
 10
1953.714838757293
 20
735.314172315881
 30
0.0
 11
1953.714838757293
 21
576.314172315881
 31
0.0
  0
LINE
  5
DEA
330
1F
100
AcDbEntity
  8
BMK
100
AcDbLine
 10
3179.055107896163
 20
760.314172315881
 30
0.0
 11
3178.590165384845
 21
712.3399660829281
 31
0.0
  0
LINE
  5
DEB
330
1F
100
AcDbEntity
  8
BMK
100
AcDbLine
 10
3289.055107896162
 20
760.314172315881
 30
0.0
 11
3288.590165384845
 21
712.3399660829281
 31
0.0
  0
LINE
  5
DED
330
1F
100
AcDbEntity
  8
BMK
100
AcDbLine
 10
3601.962560970388
 20
760.314172315881
 30
0.0
 11
3602.427503481706
 21
712.3399660829282
 31
0.0
  0
LINE
  5
E95
330
1F
100
AcDbEntity
  8
BMK
100
AcDbLine
 10
683.7148387572945
 20
880.3141723158814
 30
0.0
 11
683.7148387572944
 21
896.6014321915823
 31
0.0
  0
CIRCLE
  5
EA5
330
1F
100
AcDbEntity
  8
STR
100
AcDbCircle
 10
628.7148387572943
 20
2160.314172315881
 30
0.0
 40
10.0
  0
LINE
  5
EA6
330
1F
100
AcDbEntity
  8
BMK
100
AcDbLine
 10
628.7148387572943
 20
2140.314172315881
 30
0.0
 11
628.7148387572943
 21
2180.314172315881
 31
0.0
  0
LINE
  5
EA8
330
1F
100
AcDbEntity
  8
BMK
100
AcDbLine
 10
3521.961152189065
 20
760.6049039700849
 30
0.0
 11
3522.428912329189
 21
712.3399660829281
 31
0.0
  0
LINE
  5
EA9
330
1F
100
AcDbEntity
  8
STR
100
AcDbLine
 10
3492.834796892656
 20
670.3141723158814
 30
0.0
 11
3640.508834433276
 21
670.3141723158815
 31
0.0
  0
LINE
  5
EB5
330
1F
100
AcDbEntity
  8
STR
100
AcDbLine
 10
663.7148387572942
 20
879.2409856629538
 30
0.0
 11
664.7880254102217
 21
880.3141723158812
 31
0.0
  0
LINE
  5
EB6
330
1F
100
AcDbEntity
  8
STR
100
AcDbLine
 10
663.7148387572942
 20
861.2804734208154
 30
0.0
 11
682.7485376523602
 21
880.3141723158814
 31
0.0
  0
LINE
  5
EB7
330
1F
100
AcDbEntity
  8
STR
100
AcDbLine
 10
663.714838757294
 20
843.319961178677
 30
0.0
 11
700.7090498944985
 21
880.3141723158814
 31
0.0
  0
LINE
  5
EB8
330
1F
100
AcDbEntity
  8
STR
100
AcDbLine
 10
663.7148387572941
 20
825.3594489365386
 30
0.0
 11
703.7148387572945
 21
865.359448936539
 31
0.0
  0
LINE
  5
EB9
330
1F
100
AcDbEntity
  8
STR
100
AcDbLine
 10
663.7148387572942
 20
807.3989366944006
 30
0.0
 11
703.7148387572942
 21
847.3989366944007
 31
0.0
  0
LINE
  5
EBA
330
1F
100
AcDbEntity
  8
STR
100
AcDbLine
 10
663.7148387572942
 20
789.4384244522622
 30
0.0
 11
703.7148387572942
 21
829.4384244522621
 31
0.0
  0
LINE
  5
EBB
330
1F
100
AcDbEntity
  8
STR
100
AcDbLine
 10
663.7148387572941
 20
771.4779122101238
 30
0.0
 11
703.7148387572941
 21
811.4779122101237
 31
0.0
  0
LINE
  5
EBC
330
1F
100
AcDbEntity
  8
STR
100
AcDbLine
 10
670.51161110519
 20
760.3141723158813
 30
0.0
 11
703.7148387572942
 21
793.5173999679856
 31
0.0
  0
LINE
  5
EBD
330
1F
100
AcDbEntity
  8
STR
100
AcDbLine
 10
688.4721233473284
 20
760.3141723158814
 30
0.0
 11
703.7148387572941
 21
775.5568877258472
 31
0.0
  0
LINE
  5
EBE
330
1F
100
AcDbEntity
  8
STR
100
AcDbLine
 10
2227.468030560418
 20
1400.314172315881
 30
0.0
 11
2226.218030560418
 21
1400.314172315881
 31
0.0
  0
LINE
  5
EBF
330
1F
100
AcDbEntity
  8
STR
100
AcDbLine
 10
2226.843030560418
 20
800.3141723158808
 30
0.0
 11
2226.218030560418
 21
800.3141723158808
 31
0.0
  0
LINE
  5
EC0
330
1F
100
AcDbEntity
  8
STR
100
AcDbLine
 10
2227.468030560419
 20
1380.314172315881
 30
0.0
 11
2227.468030560418
 21
820.3141723158809
 31
0.0
  0
MTEXT
  5
EC3
330
1F
100
AcDbEntity
  8
STR
100
AcDbMText
 10
2202.468030560418
 20
1100.314172315881
 30
0.0
 40
30.0
 41
0.0
 71
     5
 72
     1
  1
　
 11
0.0000000000000001
 21
1.0
 31
0.0
1001
ACAD
1000
MTEXTBEGIN
1070
    73
1070
     1
1070
    44
1040
1.0
1070
    74
1070
     0
1000
MTEXTEND
  0
LINE
  5
EC4
330
1F
100
AcDbEntity
  8
STR
100
AcDbLine
 10
1313.714838757294
 20
1431.564172315881
 30
0.0
 11
1313.714838757294
 21
1559.418176440122
 31
0.0
  0
LINE
  5
EC5
330
1F
100
AcDbEntity
  8
STR
100
AcDbLine
 10
703.7148387572942
 20
1432.814172315881
 30
0.0
 11
703.7148387572942
 21
1559.418176440122
 31
0.0
  0
LINE
  5
EC6
330
1F
100
AcDbEntity
  8
STR
100
AcDbLine
 10
1293.714838757294
 20
1558.168176440122
 30
0.0
 11
723.7148387572942
 21
1558.168176440122
 31
0.0
  0
LINE
  5
ECA
330
1F
100
AcDbEntity
  8
STR
100
AcDbLine
 10
613.7148387572942
 20
1432.814172315881
 30
0.0
 11
613.7148387572942
 21
1622.53017670809
 31
0.0
  0
LINE
  5
ECB
330
1F
100
AcDbEntity
  8
STR
100
AcDbLine
 10
1313.714838757294
 20
1432.189172315881
 30
0.0
 11
1313.714838757294
 21
1622.53017670809
 31
0.0
  0
LINE
  5
ECC
330
1F
100
AcDbEntity
  8
STR
100
AcDbLine
 10
633.7148387572942
 20
1621.28017670809
 30
0.0
 11
1293.714838757294
 21
1621.28017670809
 31
0.0
  0
LINE
  5
ED0
330
1F
100
AcDbEntity
  8
STR
100
AcDbLine
 10
582.4648387572944
 20
760.3141723158812
 30
0.0
 11
515.7193552211738
 21
760.3141723158812
 31
0.0
  0
LINE
  5
ED1
330
1F
100
AcDbEntity
  8
STR
100
AcDbLine
 10
582.4648387572944
 20
1100.314172315881
 30
0.0
 11
515.7193552211739
 21
1100.314172315881
 31
0.0
  0
LINE
  5
ED2
330
1F
100
AcDbEntity
  8
STR
100
AcDbLine
 10
516.9693552211739
 20
780.3141723158812
 30
0.0
 11
516.9693552211739
 21
1080.314172315881
 31
0.0
  0
LINE
  5
ED6
330
1F
100
AcDbEntity
  8
STR
100
AcDbLine
 10
583.0898387572942
 20
735.3141723158811
 30
0.0
 11
515.7193552211738
 21
735.3141723158811
 31
0.0
  0
LINE
  5
ED7
330
1F
100
AcDbEntity
  8
STR
100
AcDbLine
 10
582.4648387572944
 20
760.3141723158812
 30
0.0
 11
515.7193552211738
 21
760.3141723158812
 31
0.0
  0
LINE
  5
ED8
330
1F
100
AcDbEntity
  8
STR
100
AcDbLine
 10
516.9693552211738
 20
715.3141723158811
 30
0.0
 11
516.9693552211738
 21
695.3141723158811
 31
0.0
  0
LINE
  5
ED9
330
1F
100
AcDbEntity
  8
STR
100
AcDbLine
 10
516.9693552211739
 20
780.3141723158812
 30
0.0
 11
516.9693552211739
 21
800.3141723158812
 31
0.0
  0
LINE
  5
EDB
330
1F
100
AcDbEntity
  8
STR
100
AcDbLine
 10
516.9693552211738
 20
735.3141723158811
 30
0.0
 11
516.9693552211738
 21
760.3141723158812
 31
0.0
  0
LINE
  5
EDE
330
1F
100
AcDbEntity
  8
STR
100
AcDbLine
 10
583.0898387572943
 20
576.3141723158811
 30
0.0
 11
515.7193552211738
 21
576.3141723158811
 31
0.0
  0
LINE
  5
EDF
330
1F
100
AcDbEntity
  8
STR
100
AcDbLine
 10
583.0898387572942
 20
735.3141723158811
 30
0.0
 11
515.7193552211738
 21
735.3141723158811
 31
0.0
  0
LINE
  5
EE0
330
1F
100
AcDbEntity
  8
STR
100
AcDbLine
 10
516.9693552211738
 20
596.3141723158811
 30
0.0
 11
516.9693552211738
 21
715.3141723158811
 31
0.0
  0
LINE
  5
EE4
330
1F
100
AcDbEntity
  8
STR
100
AcDbLine
 10
583.0898387572942
 20
576.3141723158811
 30
0.0
 11
447.4551022842223
 21
576.3141723158811
 31
0.0
  0
LINE
  5
EE5
330
1F
100
AcDbEntity
  8
STR
100
AcDbLine
 10
583.0898387572942
 20
1100.314172315881
 30
0.0
 11
447.4551022842224
 21
1100.314172315881
 31
0.0
  0
LINE
  5
EE6
330
1F
100
AcDbEntity
  8
STR
100
AcDbLine
 10
448.7051022842223
 20
596.3141723158811
 30
0.0
 11
448.7051022842224
 21
1080.314172315881
 31
0.0
  0
LINE
  5
EEA
330
1F
100
AcDbEntity
  8
STR
100
AcDbLine
 10
653.7148387572942
 20
393.0591726310382
 30
0.0
 11
653.7148387572942
 21
307.7985947914658
 31
0.0
  0
LINE
  5
EEB
330
1F
100
AcDbEntity
  8
STR
100
AcDbLine
 10
2603.714838757293
 20
545.0641723158808
 30
0.0
 11
2603.714838757293
 21
307.7985947914658
 31
0.0
  0
LINE
  5
EEC
330
1F
100
AcDbEntity
  8
STR
100
AcDbLine
 10
673.7148387572942
 20
309.0485947914658
 30
0.0
 11
2583.714838757293
 21
309.0485947914658
 31
0.0
  0
LINE
  5
EF0
330
1F
100
AcDbEntity
  8
STR
100
AcDbLine
 10
653.7148387572942
 20
469.3741724734596
 30
0.0
 11
653.7148387572942
 21
384.1135946338872
 31
0.0
  0
LINE
  5
EF1
330
1F
100
AcDbEntity
  8
STR
100
AcDbLine
 10
2403.714838757293
 20
545.0641723158808
 30
0.0
 11
2403.714838757293
 21
384.1135946338872
 31
0.0
  0
LINE
  5
EF2
330
1F
100
AcDbEntity
  8
STR
100
AcDbLine
 10
673.7148387572942
 20
385.3635946338872
 30
0.0
 11
2383.714838757293
 21
385.3635946338872
 31
0.0
  0
LINE
  5
EF6
330
1F
100
AcDbEntity
  8
STR
100
AcDbLine
 10
653.7148387572942
 20
545.6891723158811
 30
0.0
 11
653.7148387572942
 21
460.4285944763087
 31
0.0
  0
LINE
  5
EF7
330
1F
100
AcDbEntity
  8
STR
100
AcDbLine
 10
1953.714838757293
 20
545.6891723158808
 30
0.0
 11
1953.714838757293
 21
460.4285944763087
 31
0.0
  0
LINE
  5
EF8
330
1F
100
AcDbEntity
  8
STR
100
AcDbLine
 10
673.7148387572942
 20
461.6785944763087
 30
0.0
 11
1933.714838757293
 21
461.6785944763087
 31
0.0
  0
LINE
  5
EFC
330
1F
100
AcDbEntity
  8
STR
100
AcDbLine
 10
1393.714838757294
 20
1317.506872049095
 30
0.0
 11
1393.714838757294
 21
1316.256872049095
 31
0.0
  0
LINE
  5
EFD
330
1F
100
AcDbEntity
  8
STR
100
AcDbLine
 10
2393.714838757294
 20
1317.506872049095
 30
0.0
 11
2393.714838757294
 21
1316.256872049095
 31
0.0
  0
LINE
  5
EFE
330
1F
100
AcDbEntity
  8
STR
100
AcDbLine
 10
1413.714838757294
 20
1317.506872049095
 30
0.0
 11
2373.714838757294
 21
1317.506872049095
 31
0.0
  0
LINE
  5
F02
330
1F
100
AcDbEntity
  8
STR
100
AcDbLine
 10
1393.714838757294
 20
1241.044163442247
 30
0.0
 11
1393.714838757294
 21
1239.794163442248
 31
0.0
  0
LINE
  5
F03
330
1F
100
AcDbEntity
  8
STR
100
AcDbLine
 10
2093.714838757294
 20
1241.044163442247
 30
0.0
 11
2093.714838757294
 21
1239.794163442248
 31
0.0
  0
LINE
  5
F04
330
1F
100
AcDbEntity
  8
STR
100
AcDbLine
 10
1413.714838757294
 20
1241.044163442247
 30
0.0
 11
2073.714838757294
 21
1241.044163442247
 31
0.0
  0
LINE
  5
F08
330
1F
100
AcDbEntity
  8
STR
100
AcDbLine
 10
1393.714838757294
 20
1167.280914978628
 30
0.0
 11
1393.714838757294
 21
1166.030914978628
 31
0.0
  0
LINE
  5
F09
330
1F
100
AcDbEntity
  8
STR
100
AcDbLine
 10
1893.714838757294
 20
1167.280914978628
 30
0.0
 11
1893.714838757294
 21
1166.030914978628
 31
0.0
  0
LINE
  5
F0A
330
1F
100
AcDbEntity
  8
STR
100
AcDbLine
 10
1413.714838757294
 20
1167.280914978628
 30
0.0
 11
1873.714838757294
 21
1167.280914978628
 31
0.0
  0
LINE
  5
F0E
330
1F
100
AcDbEntity
  8
STR
100
AcDbLine
 10
3149.883834433274
 20
1480.31417231588
 30
0.0
 11
2968.20188441113
 21
1480.31417231588
 31
0.0
  0
LINE
  5
F0F
330
1F
100
AcDbEntity
  8
STR
100
AcDbLine
 10
3109.883834433275
 20
576.314172315881
 30
0.0
 11
2968.201884411129
 21
576.314172315881
 31
0.0
  0
LINE
  5
F10
330
1F
100
AcDbEntity
  8
STR
100
AcDbLine
 10
2969.45188441113
 20
1460.314172315881
 30
0.0
 11
2969.45188441113
 21
596.314172315881
 31
0.0
  0
LINE
  5
F14
330
1F
100
AcDbEntity
  8
STR
100
AcDbLine
 10
3140.508834433274
 20
545.689172315881
 30
0.0
 11
3140.508834433274
 21
382.7217334916813
 31
0.0
  0
LINE
  5
F15
330
1F
100
AcDbEntity
  8
STR
100
AcDbLine
 10
3640.508834433275
 20
545.689172315881
 30
0.0
 11
3640.508834433275
 21
382.7217334916813
 31
0.0
  0
LINE
  5
F16
330
1F
100
AcDbEntity
  8
STR
100
AcDbLine
 10
3160.508834433275
 20
383.9717334916813
 30
0.0
 11
3620.508834433275
 21
383.9717334916813
 31
0.0
  0
LINE
  5
F1A
330
1F
100
AcDbEntity
  8
STR
100
AcDbLine
 10
3180.508834433274
 20
1430.939172315881
 30
0.0
 11
3180.508834433274
 21
1580.747107365362
 31
0.0
  0
LINE
  5
F1B
330
1F
100
AcDbEntity
  8
STR
100
AcDbLine
 10
3600.508834433274
 20
1430.939172315881
 30
0.0
 11
3600.508834433274
 21
1580.747107365362
 31
0.0
  0
LINE
  5
F1C
330
1F
100
AcDbEntity
  8
STR
100
AcDbLine
 10
3200.508834433275
 20
1579.497107365362
 30
0.0
 11
3580.508834433274
 21
1579.497107365362
 31
0.0
  0
LINE
  5
F20
330
1F
100
AcDbEntity
  8
STR
100
AcDbLine
 10
3160.508834433274
 20
873.9098963761962
 30
0.0
 11
3166.913110372959
 21
880.3141723158811
 31
0.0
  0
LINE
  5
F21
330
1F
100
AcDbEntity
  8
STR
100
AcDbLine
 10
3160.508834433274
 20
855.9493841340579
 30
0.0
 11
3184.873622615098
 21
880.3141723158811
 31
0.0
  0
LINE
  5
F22
330
1F
100
AcDbEntity
  8
STR
100
AcDbLine
 10
3160.508834433274
 20
837.9888718919197
 30
0.0
 11
3200.508834433273
 21
877.988871891919
 31
0.0
  0
LINE
  5
F23
330
1F
100
AcDbEntity
  8
STR
100
AcDbLine
 10
3160.508834433274
 20
820.0283596497811
 30
0.0
 11
3200.508834433273
 21
860.0283596497805
 31
0.0
  0
LINE
  5
F24
330
1F
100
AcDbEntity
  8
STR
100
AcDbLine
 10
3160.508834433274
 20
802.0678474076428
 30
0.0
 11
3200.508834433273
 21
842.0678474076421
 31
0.0
  0
LINE
  5
F25
330
1F
100
AcDbEntity
  8
STR
100
AcDbLine
 10
3160.508834433274
 20
784.1073351655045
 30
0.0
 11
3200.508834433273
 21
824.1073351655039
 31
0.0
  0
LINE
  5
F26
330
1F
100
AcDbEntity
  8
STR
100
AcDbLine
 10
3160.508834433274
 20
766.1468229233662
 30
0.0
 11
3200.508834433273
 21
806.1468229233653
 31
0.0
  0
LINE
  5
F27
330
1F
100
AcDbEntity
  8
STR
100
AcDbLine
 10
3270.508834433274
 20
876.1468229233665
 30
0.0
 11
3274.676183825789
 21
880.3141723158812
 31
0.0
  0
LINE
  5
F28
330
1F
100
AcDbEntity
  8
STR
100
AcDbLine
 10
3172.636696067927
 20
760.3141723158808
 30
0.0
 11
3200.508834433273
 21
788.1863106812265
 31
0.0
  0
LINE
  5
F29
330
1F
100
AcDbEntity
  8
STR
100
AcDbLine
 10
3290.508834433274
 20
878.1863106812279
 30
0.0
 11
3292.636696067927
 21
880.3141723158811
 31
0.0
  0
LINE
  5
F2A
330
1F
100
AcDbEntity
  8
STR
100
AcDbLine
 10
3270.508834433274
 20
858.1863106812274
 30
0.0
 11
3290.508834433272
 21
878.1863106812263
 31
0.0
  0
LINE
  5
F2B
330
1F
100
AcDbEntity
  8
STR
100
AcDbLine
 10
3190.597208310065
 20
760.3141723158808
 30
0.0
 11
3200.508834433272
 21
770.2257984390882
 31
0.0
  0
LINE
  5
F2C
330
1F
100
AcDbEntity
  8
STR
100
AcDbLine
 10
3290.508834433274
 20
860.2257984390902
 30
0.0
 11
3310.508834433273
 21
880.2257984390891
 31
0.0
  0
LINE
  5
F2D
330
1F
100
AcDbEntity
  8
STR
100
AcDbLine
 10
3270.508834433274
 20
840.2257984390898
 30
0.0
 11
3270.597208310064
 21
840.3141723158798
 31
0.0
  0
LINE
  5
F2E
330
1F
100
AcDbEntity
  8
STR
100
AcDbLine
 10
3270.597208310064
 20
840.3141723158801
 30
0.0
 11
3290.508834433273
 21
860.2257984390886
 31
0.0
  0
LINE
  5
F2F
330
1F
100
AcDbEntity
  8
STR
100
AcDbLine
 10
3270.508834433274
 20
822.2652861969516
 30
0.0
 11
3288.557720552202
 21
840.3141723158796
 31
0.0
  0
LINE
  5
F30
330
1F
100
AcDbEntity
  8
STR
100
AcDbLine
 10
3290.508834433274
 20
842.265286196952
 30
0.0
 11
3310.508834433273
 21
862.2652861969509
 31
0.0
  0
LINE
  5
F31
330
1F
100
AcDbEntity
  8
STR
100
AcDbLine
 10
3288.557720552203
 20
840.3141723158803
 30
0.0
 11
3290.508834433274
 21
842.2652861969512
 31
0.0
  0
LINE
  5
F32
330
1F
100
AcDbEntity
  8
STR
100
AcDbLine
 10
3270.508834433274
 20
804.304773954813
 30
0.0
 11
3306.518232794341
 21
840.3141723158801
 31
0.0
  0
LINE
  5
F33
330
1F
100
AcDbEntity
  8
STR
100
AcDbLine
 10
3306.518232794341
 20
840.3141723158801
 30
0.0
 11
3310.508834433274
 21
844.3047739548131
 31
0.0
  0
LINE
  5
F34
330
1F
100
AcDbEntity
  8
STR
100
AcDbLine
 10
3270.508834433274
 20
786.3442617126747
 30
0.0
 11
3310.508834433274
 21
826.3442617126747
 31
0.0
  0
LINE
  5
F35
330
1F
100
AcDbEntity
  8
STR
100
AcDbLine
 10
3270.508834433274
 20
768.3837494705365
 30
0.0
 11
3310.508834433274
 21
808.3837494705372
 31
0.0
  0
LINE
  5
F36
330
1F
100
AcDbEntity
  8
STR
100
AcDbLine
 10
3280.399769520757
 20
760.314172315881
 30
0.0
 11
3310.508834433275
 21
790.4232372283988
 31
0.0
  0
LINE
  5
F37
330
1F
100
AcDbEntity
  8
STR
100
AcDbLine
 10
3298.360281762895
 20
760.314172315881
 30
0.0
 11
3310.508834433275
 21
772.4627249862607
 31
0.0
  0
LINE
  5
F38
330
1F
100
AcDbEntity
  8
STR
100
AcDbLine
 10
3470.508834433275
 20
878.5811882598451
 30
0.0
 11
3472.241818489311
 21
880.3141723158821
 31
0.0
  0
LINE
  5
F39
330
1F
100
AcDbEntity
  8
STR
100
AcDbLine
 10
3470.508834433275
 20
860.6206760177071
 30
0.0
 11
3490.20233073145
 21
880.3141723158821
 31
0.0
  0
LINE
  5
F3A
330
1F
100
AcDbEntity
  8
STR
100
AcDbLine
 10
3470.508834433275
 20
842.6601637755689
 30
0.0
 11
3490.508834433274
 21
862.660163775568
 31
0.0
  0
LINE
  5
F3B
330
1F
100
AcDbEntity
  8
STR
100
AcDbLine
 10
3490.508834433274
 20
862.6601637755683
 30
0.0
 11
3508.162842973588
 21
880.3141723158823
 31
0.0
  0
LINE
  5
F3C
330
1F
100
AcDbEntity
  8
STR
100
AcDbLine
 10
3470.508834433275
 20
824.6996515334307
 30
0.0
 11
3486.123355215724
 21
840.3141723158801
 31
0.0
  0
LINE
  5
F3D
330
1F
100
AcDbEntity
  8
STR
100
AcDbLine
 10
3490.508834433274
 20
844.6996515334303
 30
0.0
 11
3510.508834433274
 21
864.6996515334304
 31
0.0
  0
LINE
  5
F3E
330
1F
100
AcDbEntity
  8
STR
100
AcDbLine
 10
3486.123355215724
 20
840.3141723158801
 30
0.0
 11
3490.508834433274
 21
844.69965153343
 31
0.0
  0
LINE
  5
F3F
330
1F
100
AcDbEntity
  8
STR
100
AcDbLine
 10
3470.508834433275
 20
806.7391392912925
 30
0.0
 11
3504.083867457863
 21
840.3141723158798
 31
0.0
  0
LINE
  5
F40
330
1F
100
AcDbEntity
  8
STR
100
AcDbLine
 10
3504.083867457863
 20
840.3141723158798
 30
0.0
 11
3510.508834433275
 21
846.739139291292
 31
0.0
  0
LINE
  5
F41
330
1F
100
AcDbEntity
  8
STR
100
AcDbLine
 10
3470.508834433275
 20
788.7786270491544
 30
0.0
 11
3510.508834433275
 21
828.7786270491537
 31
0.0
  0
LINE
  5
F42
330
1F
100
AcDbEntity
  8
STR
100
AcDbLine
 10
3470.508834433276
 20
770.8181148070168
 30
0.0
 11
3510.508834433274
 21
810.8181148070157
 31
0.0
  0
LINE
  5
F43
330
1F
100
AcDbEntity
  8
STR
100
AcDbLine
 10
3477.965404184279
 20
760.3141723158808
 30
0.0
 11
3510.508834433275
 21
792.8576025648776
 31
0.0
  0
LINE
  5
F44
330
1F
100
AcDbEntity
  8
STR
100
AcDbLine
 10
3580.508834433275
 20
862.8576025648783
 30
0.0
 11
3597.965404184281
 21
880.3141723158827
 31
0.0
  0
LINE
  5
F45
330
1F
100
AcDbEntity
  8
STR
100
AcDbLine
 10
3495.925916426417
 20
760.3141723158812
 30
0.0
 11
3510.508834433275
 21
774.8970903227395
 31
0.0
  0
LINE
  5
F46
330
1F
100
AcDbEntity
  8
STR
100
AcDbLine
 10
3580.508834433276
 20
844.8970903227403
 30
0.0
 11
3615.925916426418
 21
880.3141723158827
 31
0.0
  0
LINE
  5
F47
330
1F
100
AcDbEntity
  8
STR
100
AcDbLine
 10
3580.508834433276
 20
826.9365780806019
 30
0.0
 11
3620.508834433275
 21
866.936578080601
 31
0.0
  0
LINE
  5
F48
330
1F
100
AcDbEntity
  8
STR
100
AcDbLine
 10
3580.508834433276
 20
808.9760658384639
 30
0.0
 11
3620.508834433275
 21
848.976065838463
 31
0.0
  0
LINE
  5
F49
330
1F
100
AcDbEntity
  8
STR
100
AcDbLine
 10
3580.508834433276
 20
791.0155535963256
 30
0.0
 11
3620.508834433275
 21
831.0155535963247
 31
0.0
  0
LINE
  5
F4A
330
1F
100
AcDbEntity
  8
STR
100
AcDbLine
 10
3580.508834433276
 20
773.0550413541875
 30
0.0
 11
3620.508834433275
 21
813.0550413541866
 31
0.0
  0
LINE
  5
F4B
330
1F
100
AcDbEntity
  8
STR
100
AcDbLine
 10
3585.728477637109
 20
760.314172315881
 30
0.0
 11
3620.508834433275
 21
795.0945291120484
 31
0.0
  0
LINE
  5
F4C
330
1F
100
AcDbEntity
  8
STR
100
AcDbLine
 10
3603.688989879246
 20
760.3141723158805
 30
0.0
 11
3620.508834433276
 21
777.1340168699103
 31
0.0
  0
LINE
  5
F4D
330
1F
100
AcDbEntity
  8
STR
100
AcDbLine
 10
1914.002566123874
 20
1910.314172315881
 30
0.0
 11
1913.714838757293
 21
1910.601899682461
 31
0.0
  0
LINE
  5
F4E
330
1F
100
AcDbEntity
  8
STR
100
AcDbLine
 10
1931.963078366012
 20
1910.314172315881
 30
0.0
 11
1913.714838757293
 21
1928.562411924599
 31
0.0
  0
LINE
  5
F4F
330
1F
100
AcDbEntity
  8
STR
100
AcDbLine
 10
1949.92359060815
 20
1910.314172315881
 30
0.0
 11
1919.92359060815
 21
1940.31417231588
 31
0.0
  0
LINE
  5
F50
330
1F
100
AcDbEntity
  8
STR
100
AcDbLine
 10
1919.92359060815
 20
1940.31417231588
 30
0.0
 11
1913.714838757293
 21
1946.522924166737
 31
0.0
  0
LINE
  5
F51
330
1F
100
AcDbEntity
  8
STR
100
AcDbLine
 10
1953.714838757293
 20
1924.483436408875
 30
0.0
 11
1937.884102850288
 21
1940.31417231588
 31
0.0
  0
LINE
  5
F52
330
1F
100
AcDbEntity
  8
STR
100
AcDbLine
 10
1937.884102850288
 20
1940.31417231588
 30
0.0
 11
1913.714838757293
 21
1964.483436408875
 31
0.0
  0
LINE
  5
F53
330
1F
100
AcDbEntity
  8
STR
100
AcDbLine
 10
1953.714838757293
 20
1942.443948651014
 30
0.0
 11
1913.714838757293
 21
1982.443948651014
 31
0.0
  0
LINE
  5
F54
330
1F
100
AcDbEntity
  8
STR
100
AcDbLine
 10
1953.714838757293
 20
1960.404460893152
 30
0.0
 11
1913.714838757293
 21
2000.404460893152
 31
0.0
  0
LINE
  5
F55
330
1F
100
AcDbEntity
  8
STR
100
AcDbLine
 10
1953.714838757293
 20
1978.36497313529
 30
0.0
 11
1921.765639576703
 21
2010.314172315881
 31
0.0
  0
LINE
  5
F56
330
1F
100
AcDbEntity
  8
STR
100
AcDbLine
 10
1921.765639576702
 20
2010.314172315881
 30
0.0
 11
1913.714838757293
 21
2018.364973135291
 31
0.0
  0
LINE
  5
F57
330
1F
100
AcDbEntity
  8
STR
100
AcDbLine
 10
1953.714838757293
 20
1996.325485377428
 30
0.0
 11
1939.72615181884
 21
2010.314172315881
 31
0.0
  0
LINE
  5
F58
330
1F
100
AcDbEntity
  8
STR
100
AcDbLine
 10
1939.72615181884
 20
2010.314172315881
 30
0.0
 11
1913.714838757293
 21
2036.325485377429
 31
0.0
  0
LINE
  5
F59
330
1F
100
AcDbEntity
  8
STR
100
AcDbLine
 10
1953.714838757293
 20
2014.285997619567
 30
0.0
 11
1927.686664060979
 21
2040.314172315882
 31
0.0
  0
LINE
  5
F5A
330
1F
100
AcDbEntity
  8
STR
100
AcDbLine
 10
1927.686664060979
 20
2040.314172315882
 30
0.0
 11
1913.714838757293
 21
2054.285997619567
 31
0.0
  0
LINE
  5
F5B
330
1F
100
AcDbEntity
  8
STR
100
AcDbLine
 10
1953.714838757294
 20
2032.246509861705
 30
0.0
 11
1945.647176303118
 21
2040.314172315881
 31
0.0
  0
LINE
  5
F5C
330
1F
100
AcDbEntity
  8
STR
100
AcDbLine
 10
1945.647176303118
 20
2040.314172315882
 30
0.0
 11
1913.714838757293
 21
2072.246509861705
 31
0.0
  0
LINE
  5
F5D
330
1F
100
AcDbEntity
  8
STR
100
AcDbLine
 10
1953.714838757293
 20
2050.207022103843
 30
0.0
 11
1913.714838757293
 21
2090.207022103844
 31
0.0
  0
LINE
  5
F5E
330
1F
100
AcDbEntity
  8
STR
100
AcDbLine
 10
1953.714838757293
 20
2068.167534345982
 30
0.0
 11
1913.714838757293
 21
2108.167534345982
 31
0.0
  0
LINE
  5
F5F
330
1F
100
AcDbEntity
  8
STR
100
AcDbLine
 10
1953.714838757293
 20
2086.12804658812
 30
0.0
 11
1913.714838757293
 21
2126.12804658812
 31
0.0
  0
LINE
  5
F60
330
1F
100
AcDbEntity
  8
STR
100
AcDbLine
 10
1953.714838757293
 20
2104.088558830258
 30
0.0
 11
1913.714838757293
 21
2144.088558830258
 31
0.0
  0
LINE
  5
F61
330
1F
100
AcDbEntity
  8
STR
100
AcDbLine
 10
1953.714838757293
 20
2122.049071072397
 30
0.0
 11
1913.714838757293
 21
2162.049071072396
 31
0.0
  0
LINE
  5
F62
330
1F
100
AcDbEntity
  8
STR
100
AcDbLine
 10
1953.714838757293
 20
2140.009583314536
 30
0.0
 11
1913.714838757293
 21
2180.009583314535
 31
0.0
  0
LINE
  5
F63
330
1F
100
AcDbEntity
  8
STR
100
AcDbLine
 10
1953.714838757293
 20
2157.970095556674
 30
0.0
 11
1913.714838757293
 21
2197.970095556674
 31
0.0
  0
LINE
  5
F64
330
1F
100
AcDbEntity
  8
STR
100
AcDbLine
 10
1953.714838757293
 20
2175.930607798812
 30
0.0
 11
1913.714838757293
 21
2215.930607798812
 31
0.0
  0
LINE
  5
F65
330
1F
100
AcDbEntity
  8
STR
100
AcDbLine
 10
1953.714838757293
 20
2193.89112004095
 30
0.0
 11
1913.714838757293
 21
2233.89112004095
 31
0.0
  0
LINE
  5
F66
330
1F
100
AcDbEntity
  8
STR
100
AcDbLine
 10
1953.714838757293
 20
2211.851632283089
 30
0.0
 11
1913.714838757293
 21
2251.851632283089
 31
0.0
  0
LINE
  5
F67
330
1F
100
AcDbEntity
  8
STR
100
AcDbLine
 10
1953.714838757293
 20
2229.812144525227
 30
0.0
 11
1913.714838757293
 21
2269.812144525227
 31
0.0
  0
LINE
  5
F68
330
1F
100
AcDbEntity
  8
STR
100
AcDbLine
 10
1953.714838757293
 20
2247.772656767365
 30
0.0
 11
1921.173323208779
 21
2280.31417231588
 31
0.0
  0
LINE
  5
F69
330
1F
100
AcDbEntity
  8
STR
100
AcDbLine
 10
1921.173323208779
 20
2280.31417231588
 30
0.0
 11
1913.714838757293
 21
2287.772656767365
 31
0.0
  0
LINE
  5
F6A
330
1F
100
AcDbEntity
  8
STR
100
AcDbLine
 10
1953.714838757293
 20
2265.733169009503
 30
0.0
 11
1939.133835450917
 21
2280.31417231588
 31
0.0
  0
LINE
  5
F6B
330
1F
100
AcDbEntity
  8
STR
100
AcDbLine
 10
1939.133835450917
 20
2280.31417231588
 30
0.0
 11
1913.714838757293
 21
2305.733169009504
 31
0.0
  0
LINE
  5
F6C
330
1F
100
AcDbEntity
  8
STR
100
AcDbLine
 10
1953.714838757293
 20
2283.693681251642
 30
0.0
 11
1927.094347693055
 21
2310.31417231588
 31
0.0
  0
LINE
  5
F6D
330
1F
100
AcDbEntity
  8
STR
100
AcDbLine
 10
1927.094347693054
 20
2310.314172315881
 30
0.0
 11
1913.714838757293
 21
2323.693681251642
 31
0.0
  0
LINE
  5
F6E
330
1F
100
AcDbEntity
  8
STR
100
AcDbLine
 10
1953.714838757294
 20
2301.65419349378
 30
0.0
 11
1945.054859935193
 21
2310.31417231588
 31
0.0
  0
LINE
  5
F6F
330
1F
100
AcDbEntity
  8
STR
100
AcDbLine
 10
1945.054859935193
 20
2310.31417231588
 30
0.0
 11
1913.714838757293
 21
2341.65419349378
 31
0.0
  0
LINE
  5
F70
330
1F
100
AcDbEntity
  8
STR
100
AcDbLine
 10
1953.714838757293
 20
2319.614705735918
 30
0.0
 11
1913.714838757293
 21
2359.614705735919
 31
0.0
  0
LINE
  5
F71
330
1F
100
AcDbEntity
  8
STR
100
AcDbLine
 10
1953.714838757293
 20
2337.575217978056
 30
0.0
 11
1913.714838757293
 21
2377.575217978057
 31
0.0
  0
LINE
  5
F72
330
1F
100
AcDbEntity
  8
STR
100
AcDbLine
 10
1953.714838757294
 20
2355.535730220195
 30
0.0
 11
1928.936396661609
 21
2380.31417231588
 31
0.0
  0
LINE
  5
F73
330
1F
100
AcDbEntity
  8
STR
100
AcDbLine
 10
1928.936396661609
 20
2380.31417231588
 30
0.0
 11
1913.714838757293
 21
2395.535730220195
 31
0.0
  0
LINE
  5
F74
330
1F
100
AcDbEntity
  8
STR
100
AcDbLine
 10
1953.714838757294
 20
2373.496242462333
 30
0.0
 11
1946.896908903747
 21
2380.31417231588
 31
0.0
  0
LINE
  5
F75
330
1F
100
AcDbEntity
  8
STR
100
AcDbLine
 10
1946.896908903746
 20
2380.31417231588
 30
0.0
 11
1916.896908903747
 21
2410.31417231588
 31
0.0
  0
LINE
  5
F76
330
1F
100
AcDbEntity
  8
STR
100
AcDbLine
 10
1953.714838757293
 20
2391.456754704472
 30
0.0
 11
1934.857421145885
 21
2410.31417231588
 31
0.0
  0
LINE
  5
F77
330
1F
100
AcDbEntity
  8
STR
100
AcDbLine
 10
1953.714838757293
 20
2409.41726694661
 30
0.0
 11
1952.817933388023
 21
2410.31417231588
 31
0.0
  0
LINE
  5
F78
330
1F
100
AcDbEntity
  8
STR
100
AcDbLine
 10
2364.002566123873
 20
1910.314172315881
 30
0.0
 11
2363.714838757294
 21
1910.60189968246
 31
0.0
  0
LINE
  5
F79
330
1F
100
AcDbEntity
  8
STR
100
AcDbLine
 10
2381.963078366012
 20
1910.314172315881
 30
0.0
 11
2363.714838757294
 21
1928.562411924598
 31
0.0
  0
LINE
  5
F7A
330
1F
100
AcDbEntity
  8
STR
100
AcDbLine
 10
2399.92359060815
 20
1910.31417231588
 30
0.0
 11
2369.92359060815
 21
1940.31417231588
 31
0.0
  0
LINE
  5
F7B
330
1F
100
AcDbEntity
  8
STR
100
AcDbLine
 10
2369.92359060815
 20
1940.31417231588
 30
0.0
 11
2363.714838757294
 21
1946.522924166736
 31
0.0
  0
LINE
  5
F7C
330
1F
100
AcDbEntity
  8
STR
100
AcDbLine
 10
2403.714838757293
 20
1924.483436408875
 30
0.0
 11
2387.884102850289
 21
1940.31417231588
 31
0.0
  0
LINE
  5
F7D
330
1F
100
AcDbEntity
  8
STR
100
AcDbLine
 10
2387.884102850288
 20
1940.31417231588
 30
0.0
 11
2363.714838757294
 21
1964.483436408875
 31
0.0
  0
LINE
  5
F7E
330
1F
100
AcDbEntity
  8
STR
100
AcDbLine
 10
2403.714838757293
 20
1942.443948651014
 30
0.0
 11
2363.714838757294
 21
1982.443948651014
 31
0.0
  0
LINE
  5
F7F
330
1F
100
AcDbEntity
  8
STR
100
AcDbLine
 10
2403.714838757293
 20
1960.404460893152
 30
0.0
 11
2363.714838757294
 21
2000.404460893152
 31
0.0
  0
LINE
  5
F80
330
1F
100
AcDbEntity
  8
STR
100
AcDbLine
 10
2403.714838757293
 20
1978.36497313529
 30
0.0
 11
2371.765639576702
 21
2010.314172315881
 31
0.0
  0
LINE
  5
F81
330
1F
100
AcDbEntity
  8
STR
100
AcDbLine
 10
2371.765639576702
 20
2010.314172315882
 30
0.0
 11
2363.714838757294
 21
2018.364973135291
 31
0.0
  0
LINE
  5
F82
330
1F
100
AcDbEntity
  8
STR
100
AcDbLine
 10
2403.714838757293
 20
1996.325485377428
 30
0.0
 11
2389.726151818841
 21
2010.314172315881
 31
0.0
  0
LINE
  5
F83
330
1F
100
AcDbEntity
  8
STR
100
AcDbLine
 10
2389.726151818841
 20
2010.314172315881
 30
0.0
 11
2363.714838757294
 21
2036.325485377429
 31
0.0
  0
LINE
  5
F84
330
1F
100
AcDbEntity
  8
STR
100
AcDbLine
 10
2403.714838757293
 20
2014.285997619567
 30
0.0
 11
2377.686664060979
 21
2040.314172315881
 31
0.0
  0
LINE
  5
F85
330
1F
100
AcDbEntity
  8
STR
100
AcDbLine
 10
2377.686664060979
 20
2040.314172315881
 30
0.0
 11
2363.714838757294
 21
2054.285997619567
 31
0.0
  0
LINE
  5
F86
330
1F
100
AcDbEntity
  8
STR
100
AcDbLine
 10
2403.714838757294
 20
2032.246509861705
 30
0.0
 11
2395.647176303118
 21
2040.314172315881
 31
0.0
  0
LINE
  5
F87
330
1F
100
AcDbEntity
  8
STR
100
AcDbLine
 10
2395.647176303117
 20
2040.314172315881
 30
0.0
 11
2363.714838757294
 21
2072.246509861705
 31
0.0
  0
LINE
  5
F88
330
1F
100
AcDbEntity
  8
STR
100
AcDbLine
 10
2403.714838757293
 20
2050.207022103843
 30
0.0
 11
2363.714838757294
 21
2090.207022103843
 31
0.0
  0
LINE
  5
F89
330
1F
100
AcDbEntity
  8
STR
100
AcDbLine
 10
2403.714838757293
 20
2068.167534345981
 30
0.0
 11
2363.714838757293
 21
2108.167534345982
 31
0.0
  0
LINE
  5
F8A
330
1F
100
AcDbEntity
  8
STR
100
AcDbLine
 10
2403.714838757293
 20
2086.128046588121
 30
0.0
 11
2363.714838757294
 21
2126.12804658812
 31
0.0
  0
LINE
  5
F8B
330
1F
100
AcDbEntity
  8
STR
100
AcDbLine
 10
2403.714838757293
 20
2104.088558830259
 30
0.0
 11
2363.714838757294
 21
2144.088558830258
 31
0.0
  0
LINE
  5
F8C
330
1F
100
AcDbEntity
  8
STR
100
AcDbLine
 10
2403.714838757293
 20
2122.049071072397
 30
0.0
 11
2363.714838757294
 21
2162.049071072396
 31
0.0
  0
LINE
  5
F8D
330
1F
100
AcDbEntity
  8
STR
100
AcDbLine
 10
2403.714838757293
 20
2140.009583314535
 30
0.0
 11
2363.714838757294
 21
2180.009583314535
 31
0.0
  0
LINE
  5
F8E
330
1F
100
AcDbEntity
  8
STR
100
AcDbLine
 10
2403.714838757293
 20
2157.970095556673
 30
0.0
 11
2363.714838757294
 21
2197.970095556673
 31
0.0
  0
LINE
  5
F8F
330
1F
100
AcDbEntity
  8
STR
100
AcDbLine
 10
2403.714838757293
 20
2175.930607798812
 30
0.0
 11
2363.714838757294
 21
2215.930607798811
 31
0.0
  0
LINE
  5
F90
330
1F
100
AcDbEntity
  8
STR
100
AcDbLine
 10
2403.714838757293
 20
2193.89112004095
 30
0.0
 11
2363.714838757294
 21
2233.891120040949
 31
0.0
  0
LINE
  5
F91
330
1F
100
AcDbEntity
  8
STR
100
AcDbLine
 10
2403.714838757293
 20
2211.851632283089
 30
0.0
 11
2363.714838757294
 21
2251.851632283089
 31
0.0
  0
LINE
  5
F92
330
1F
100
AcDbEntity
  8
STR
100
AcDbLine
 10
2403.714838757293
 20
2229.812144525227
 30
0.0
 11
2363.714838757294
 21
2269.812144525227
 31
0.0
  0
LINE
  5
F93
330
1F
100
AcDbEntity
  8
STR
100
AcDbLine
 10
2403.714838757293
 20
2247.772656767365
 30
0.0
 11
2371.173323208778
 21
2280.31417231588
 31
0.0
  0
LINE
  5
F94
330
1F
100
AcDbEntity
  8
STR
100
AcDbLine
 10
2371.173323208778
 20
2280.31417231588
 30
0.0
 11
2363.714838757294
 21
2287.772656767365
 31
0.0
  0
LINE
  5
F95
330
1F
100
AcDbEntity
  8
STR
100
AcDbLine
 10
2403.714838757293
 20
2265.733169009503
 30
0.0
 11
2389.133835450916
 21
2280.31417231588
 31
0.0
  0
LINE
  5
F96
330
1F
100
AcDbEntity
  8
STR
100
AcDbLine
 10
2389.133835450916
 20
2280.31417231588
 30
0.0
 11
2363.714838757293
 21
2305.733169009504
 31
0.0
  0
LINE
  5
F97
330
1F
100
AcDbEntity
  8
STR
100
AcDbLine
 10
2403.714838757293
 20
2283.693681251642
 30
0.0
 11
2377.094347693055
 21
2310.31417231588
 31
0.0
  0
LINE
  5
F98
330
1F
100
AcDbEntity
  8
STR
100
AcDbLine
 10
2377.094347693054
 20
2310.314172315881
 30
0.0
 11
2363.714838757294
 21
2323.693681251641
 31
0.0
  0
LINE
  5
F99
330
1F
100
AcDbEntity
  8
STR
100
AcDbLine
 10
2403.714838757294
 20
2301.654193493779
 30
0.0
 11
2395.054859935193
 21
2310.31417231588
 31
0.0
  0
LINE
  5
F9A
330
1F
100
AcDbEntity
  8
STR
100
AcDbLine
 10
2395.054859935193
 20
2310.31417231588
 30
0.0
 11
2363.714838757294
 21
2341.65419349378
 31
0.0
  0
LINE
  5
F9B
330
1F
100
AcDbEntity
  8
STR
100
AcDbLine
 10
2403.714838757293
 20
2319.614705735918
 30
0.0
 11
2363.714838757294
 21
2359.614705735917
 31
0.0
  0
LINE
  5
F9C
330
1F
100
AcDbEntity
  8
STR
100
AcDbLine
 10
2403.714838757293
 20
2337.575217978056
 30
0.0
 11
2363.714838757294
 21
2377.575217978056
 31
0.0
  0
LINE
  5
F9D
330
1F
100
AcDbEntity
  8
STR
100
AcDbLine
 10
2403.714838757294
 20
2355.535730220195
 30
0.0
 11
2378.936396661609
 21
2380.31417231588
 31
0.0
  0
LINE
  5
F9E
330
1F
100
AcDbEntity
  8
STR
100
AcDbLine
 10
2378.936396661607
 20
2380.31417231588
 30
0.0
 11
2363.714838757294
 21
2395.535730220195
 31
0.0
  0
LINE
  5
F9F
330
1F
100
AcDbEntity
  8
STR
100
AcDbLine
 10
2403.714838757294
 20
2373.496242462333
 30
0.0
 11
2396.896908903747
 21
2380.31417231588
 31
0.0
  0
LINE
  5
FA0
330
1F
100
AcDbEntity
  8
STR
100
AcDbLine
 10
2396.896908903746
 20
2380.31417231588
 30
0.0
 11
2366.896908903747
 21
2410.31417231588
 31
0.0
  0
LINE
  5
FA1
330
1F
100
AcDbEntity
  8
STR
100
AcDbLine
 10
2403.714838757293
 20
2391.456754704472
 30
0.0
 11
2384.857421145885
 21
2410.31417231588
 31
0.0
  0
LINE
  5
FA2
330
1F
100
AcDbEntity
  8
STR
100
AcDbLine
 10
2403.714838757293
 20
2409.417266946611
 30
0.0
 11
2402.817933388023
 21
2410.31417231588
 31
0.0
  0
LINE
  5
FA3
330
1F
100
AcDbEntity
  8
STR
100
AcDbLine
 10
2564.002566123873
 20
1910.314172315881
 30
0.0
 11
2563.714838757294
 21
1910.60189968246
 31
0.0
  0
LINE
  5
FA4
330
1F
100
AcDbEntity
  8
STR
100
AcDbLine
 10
2581.963078366012
 20
1910.314172315881
 30
0.0
 11
2563.714838757294
 21
1928.562411924598
 31
0.0
  0
LINE
  5
FA5
330
1F
100
AcDbEntity
  8
STR
100
AcDbLine
 10
2599.92359060815
 20
1910.31417231588
 30
0.0
 11
2569.923590608151
 21
1940.31417231588
 31
0.0
  0
LINE
  5
FA6
330
1F
100
AcDbEntity
  8
STR
100
AcDbLine
 10
2569.92359060815
 20
1940.31417231588
 30
0.0
 11
2563.714838757293
 21
1946.522924166736
 31
0.0
  0
LINE
  5
FA7
330
1F
100
AcDbEntity
  8
STR
100
AcDbLine
 10
2603.714838757293
 20
1924.483436408875
 30
0.0
 11
2587.884102850289
 21
1940.31417231588
 31
0.0
  0
LINE
  5
FA8
330
1F
100
AcDbEntity
  8
STR
100
AcDbLine
 10
2587.884102850288
 20
1940.31417231588
 30
0.0
 11
2563.714838757293
 21
1964.483436408875
 31
0.0
  0
LINE
  5
FA9
330
1F
100
AcDbEntity
  8
STR
100
AcDbLine
 10
2603.714838757293
 20
1942.443948651014
 30
0.0
 11
2563.714838757293
 21
1982.443948651014
 31
0.0
  0
LINE
  5
FAA
330
1F
100
AcDbEntity
  8
STR
100
AcDbLine
 10
2603.714838757293
 20
1960.404460893152
 30
0.0
 11
2563.714838757293
 21
2000.404460893152
 31
0.0
  0
LINE
  5
FAB
330
1F
100
AcDbEntity
  8
STR
100
AcDbLine
 10
2603.714838757293
 20
1978.36497313529
 30
0.0
 11
2571.765639576702
 21
2010.314172315881
 31
0.0
  0
LINE
  5
FAC
330
1F
100
AcDbEntity
  8
STR
100
AcDbLine
 10
2571.765639576702
 20
2010.314172315882
 30
0.0
 11
2563.714838757293
 21
2018.364973135291
 31
0.0
  0
LINE
  5
FAD
330
1F
100
AcDbEntity
  8
STR
100
AcDbLine
 10
2603.714838757293
 20
1996.325485377428
 30
0.0
 11
2589.72615181884
 21
2010.314172315881
 31
0.0
  0
LINE
  5
FAE
330
1F
100
AcDbEntity
  8
STR
100
AcDbLine
 10
2589.72615181884
 20
2010.314172315881
 30
0.0
 11
2563.714838757293
 21
2036.325485377429
 31
0.0
  0
LINE
  5
FAF
330
1F
100
AcDbEntity
  8
STR
100
AcDbLine
 10
2603.714838757293
 20
2014.285997619567
 30
0.0
 11
2577.686664060979
 21
2040.314172315881
 31
0.0
  0
LINE
  5
FB0
330
1F
100
AcDbEntity
  8
STR
100
AcDbLine
 10
2577.686664060979
 20
2040.314172315881
 30
0.0
 11
2563.714838757293
 21
2054.285997619567
 31
0.0
  0
LINE
  5
FB1
330
1F
100
AcDbEntity
  8
STR
100
AcDbLine
 10
2603.714838757294
 20
2032.246509861705
 30
0.0
 11
2595.647176303118
 21
2040.314172315881
 31
0.0
  0
LINE
  5
FB2
330
1F
100
AcDbEntity
  8
STR
100
AcDbLine
 10
2595.647176303117
 20
2040.314172315881
 30
0.0
 11
2563.714838757293
 21
2072.246509861705
 31
0.0
  0
LINE
  5
FB3
330
1F
100
AcDbEntity
  8
STR
100
AcDbLine
 10
2603.714838757293
 20
2050.207022103843
 30
0.0
 11
2563.714838757293
 21
2090.207022103843
 31
0.0
  0
LINE
  5
FB4
330
1F
100
AcDbEntity
  8
STR
100
AcDbLine
 10
2603.714838757293
 20
2068.167534345981
 30
0.0
 11
2563.714838757293
 21
2108.167534345982
 31
0.0
  0
LINE
  5
FB5
330
1F
100
AcDbEntity
  8
STR
100
AcDbLine
 10
2603.714838757293
 20
2086.128046588121
 30
0.0
 11
2563.714838757293
 21
2126.12804658812
 31
0.0
  0
LINE
  5
FB6
330
1F
100
AcDbEntity
  8
STR
100
AcDbLine
 10
2603.714838757293
 20
2104.088558830259
 30
0.0
 11
2563.714838757293
 21
2144.088558830258
 31
0.0
  0
LINE
  5
FB7
330
1F
100
AcDbEntity
  8
STR
100
AcDbLine
 10
2603.714838757293
 20
2122.049071072397
 30
0.0
 11
2563.714838757293
 21
2162.049071072396
 31
0.0
  0
LINE
  5
FB8
330
1F
100
AcDbEntity
  8
STR
100
AcDbLine
 10
2603.714838757293
 20
2140.009583314535
 30
0.0
 11
2563.714838757293
 21
2180.009583314535
 31
0.0
  0
LINE
  5
FB9
330
1F
100
AcDbEntity
  8
STR
100
AcDbLine
 10
2603.714838757293
 20
2157.970095556673
 30
0.0
 11
2563.714838757293
 21
2197.970095556673
 31
0.0
  0
LINE
  5
FBA
330
1F
100
AcDbEntity
  8
STR
100
AcDbLine
 10
2603.714838757293
 20
2175.930607798812
 30
0.0
 11
2563.714838757293
 21
2215.930607798811
 31
0.0
  0
LINE
  5
FBB
330
1F
100
AcDbEntity
  8
STR
100
AcDbLine
 10
2603.714838757293
 20
2193.89112004095
 30
0.0
 11
2563.714838757293
 21
2233.891120040949
 31
0.0
  0
LINE
  5
FBC
330
1F
100
AcDbEntity
  8
STR
100
AcDbLine
 10
2603.714838757293
 20
2211.851632283089
 30
0.0
 11
2563.714838757293
 21
2251.851632283089
 31
0.0
  0
LINE
  5
FBD
330
1F
100
AcDbEntity
  8
STR
100
AcDbLine
 10
2603.714838757293
 20
2229.812144525227
 30
0.0
 11
2563.714838757293
 21
2269.812144525227
 31
0.0
  0
LINE
  5
FBE
330
1F
100
AcDbEntity
  8
STR
100
AcDbLine
 10
2603.714838757293
 20
2247.772656767365
 30
0.0
 11
2571.173323208778
 21
2280.31417231588
 31
0.0
  0
LINE
  5
FBF
330
1F
100
AcDbEntity
  8
STR
100
AcDbLine
 10
2571.173323208778
 20
2280.31417231588
 30
0.0
 11
2563.714838757293
 21
2287.772656767365
 31
0.0
  0
LINE
  5
FC0
330
1F
100
AcDbEntity
  8
STR
100
AcDbLine
 10
2603.714838757293
 20
2265.733169009503
 30
0.0
 11
2589.133835450916
 21
2280.31417231588
 31
0.0
  0
LINE
  5
FC1
330
1F
100
AcDbEntity
  8
STR
100
AcDbLine
 10
2589.133835450916
 20
2280.31417231588
 30
0.0
 11
2563.714838757293
 21
2305.733169009503
 31
0.0
  0
LINE
  5
FC2
330
1F
100
AcDbEntity
  8
STR
100
AcDbLine
 10
2603.714838757293
 20
2283.693681251642
 30
0.0
 11
2577.094347693055
 21
2310.31417231588
 31
0.0
  0
LINE
  5
FC3
330
1F
100
AcDbEntity
  8
STR
100
AcDbLine
 10
2577.094347693055
 20
2310.314172315881
 30
0.0
 11
2563.714838757293
 21
2323.693681251641
 31
0.0
  0
LINE
  5
FC4
330
1F
100
AcDbEntity
  8
STR
100
AcDbLine
 10
2603.714838757294
 20
2301.654193493779
 30
0.0
 11
2595.054859935193
 21
2310.31417231588
 31
0.0
  0
LINE
  5
FC5
330
1F
100
AcDbEntity
  8
STR
100
AcDbLine
 10
2595.054859935193
 20
2310.31417231588
 30
0.0
 11
2563.714838757293
 21
2341.65419349378
 31
0.0
  0
LINE
  5
FC6
330
1F
100
AcDbEntity
  8
STR
100
AcDbLine
 10
2603.714838757293
 20
2319.614705735918
 30
0.0
 11
2563.714838757293
 21
2359.614705735918
 31
0.0
  0
LINE
  5
FC7
330
1F
100
AcDbEntity
  8
STR
100
AcDbLine
 10
2603.714838757293
 20
2337.575217978056
 30
0.0
 11
2563.714838757293
 21
2377.575217978056
 31
0.0
  0
LINE
  5
FC8
330
1F
100
AcDbEntity
  8
STR
100
AcDbLine
 10
2603.714838757294
 20
2355.535730220195
 30
0.0
 11
2578.936396661609
 21
2380.31417231588
 31
0.0
  0
LINE
  5
FC9
330
1F
100
AcDbEntity
  8
STR
100
AcDbLine
 10
2578.936396661608
 20
2380.31417231588
 30
0.0
 11
2563.714838757293
 21
2395.535730220195
 31
0.0
  0
LINE
  5
FCA
330
1F
100
AcDbEntity
  8
STR
100
AcDbLine
 10
2603.714838757294
 20
2373.496242462333
 30
0.0
 11
2596.896908903747
 21
2380.31417231588
 31
0.0
  0
LINE
  5
FCB
330
1F
100
AcDbEntity
  8
STR
100
AcDbLine
 10
2596.896908903746
 20
2380.31417231588
 30
0.0
 11
2566.896908903746
 21
2410.314172315881
 31
0.0
  0
LINE
  5
FCC
330
1F
100
AcDbEntity
  8
STR
100
AcDbLine
 10
2603.714838757293
 20
2391.456754704472
 30
0.0
 11
2584.857421145885
 21
2410.31417231588
 31
0.0
  0
LINE
  5
FCD
330
1F
100
AcDbEntity
  8
STR
100
AcDbLine
 10
2603.714838757293
 20
2409.41726694661
 30
0.0
 11
2602.817933388023
 21
2410.31417231588
 31
0.0
  0
LINE
  5
FCE
330
1F
100
AcDbEntity
  8
STR
100
AcDbLine
 10
1900.9641479635
 20
576.3141723158808
 30
0.0
 11
1893.714838757293
 21
583.5634815220873
 31
0.0
  0
LINE
  5
FCF
330
1F
100
AcDbEntity
  8
STR
100
AcDbLine
 10
1918.924660205638
 20
576.3141723158808
 30
0.0
 11
1913.714838757293
 21
581.5239937642258
 31
0.0
  0
LINE
  5
FD0
330
1F
100
AcDbEntity
  8
STR
100
AcDbLine
 10
1913.714838757293
 20
581.5239937642261
 30
0.0
 11
1893.714838757293
 21
601.5239937642256
 31
0.0
  0
LINE
  5
FD1
330
1F
100
AcDbEntity
  8
STR
100
AcDbLine
 10
1936.885172447777
 20
576.3141723158808
 30
0.0
 11
1913.714838757293
 21
599.4845060063644
 31
0.0
  0
LINE
  5
FD2
330
1F
100
AcDbEntity
  8
STR
100
AcDbLine
 10
1913.714838757293
 20
599.4845060063644
 30
0.0
 11
1906.885172447777
 21
606.3141723158808
 31
0.0
  0
LINE
  5
FD3
330
1F
100
AcDbEntity
  8
STR
100
AcDbLine
 10
1953.714838757293
 20
577.4450182485025
 30
0.0
 11
1924.845684689915
 21
606.3141723158808
 31
0.0
  0
LINE
  5
FD4
330
1F
100
AcDbEntity
  8
STR
100
AcDbLine
 10
1924.845684689915
 20
606.3141723158808
 30
0.0
 11
1913.714838757293
 21
617.4450182485024
 31
0.0
  0
LINE
  5
FD5
330
1F
100
AcDbEntity
  8
STR
100
AcDbLine
 10
1953.714838757293
 20
595.4055304906405
 30
0.0
 11
1942.806196932053
 21
606.3141723158808
 31
0.0
  0
LINE
  5
FD6
330
1F
100
AcDbEntity
  8
STR
100
AcDbLine
 10
1942.806196932053
 20
606.3141723158808
 30
0.0
 11
1913.714838757293
 21
635.4055304906408
 31
0.0
  0
LINE
  5
FD7
330
1F
100
AcDbEntity
  8
STR
100
AcDbLine
 10
1953.714838757294
 20
613.3660427327789
 30
0.0
 11
1913.714838757293
 21
653.3660427327791
 31
0.0
  0
LINE
  5
FD8
330
1F
100
AcDbEntity
  8
STR
100
AcDbLine
 10
1953.714838757293
 20
631.3265549749171
 30
0.0
 11
1913.714838757293
 21
671.3265549749171
 31
0.0
  0
LINE
  5
FD9
330
1F
100
AcDbEntity
  8
STR
100
AcDbLine
 10
1953.714838757293
 20
649.2870672170556
 30
0.0
 11
1913.714838757294
 21
689.2870672170552
 31
0.0
  0
LINE
  5
FDA
330
1F
100
AcDbEntity
  8
STR
100
AcDbLine
 10
1953.714838757294
 20
667.2475794591937
 30
0.0
 11
1915.648245900607
 21
705.3141723158808
 31
0.0
  0
LINE
  5
FDB
330
1F
100
AcDbEntity
  8
STR
100
AcDbLine
 10
1915.648245900607
 20
705.3141723158808
 30
0.0
 11
1913.714838757294
 21
707.2475794591935
 31
0.0
  0
LINE
  5
FDC
330
1F
100
AcDbEntity
  8
STR
100
AcDbLine
 10
1953.714838757293
 20
685.2080917013323
 30
0.0
 11
1933.608758142744
 21
705.314172315881
 31
0.0
  0
LINE
  5
FDD
330
1F
100
AcDbEntity
  8
STR
100
AcDbLine
 10
1933.608758142744
 20
705.314172315881
 30
0.0
 11
1913.714838757293
 21
725.2080917013325
 31
0.0
  0
LINE
  5
FDE
330
1F
100
AcDbEntity
  8
STR
100
AcDbLine
 10
1953.714838757293
 20
703.1686039434705
 30
0.0
 11
1951.569270384883
 21
705.3141723158808
 31
0.0
  0
LINE
  5
FDF
330
1F
100
AcDbEntity
  8
STR
100
AcDbLine
 10
1951.569270384883
 20
705.3141723158808
 30
0.0
 11
1921.569270384883
 21
735.314172315881
 31
0.0
  0
LINE
  5
FE0
330
1F
100
AcDbEntity
  8
STR
100
AcDbLine
 10
1953.714838757293
 20
721.129116185609
 30
0.0
 11
1939.529782627022
 21
735.3141723158808
 31
0.0
  0
LINE
  5
FE1
330
1F
100
AcDbEntity
  8
STR
100
AcDbLine
 10
2350.964147963501
 20
576.3141723158808
 30
0.0
 11
2343.714838757294
 21
583.5634815220876
 31
0.0
  0
LINE
  5
FE2
330
1F
100
AcDbEntity
  8
STR
100
AcDbLine
 10
2368.92466020564
 20
576.3141723158803
 30
0.0
 11
2363.714838757294
 21
581.5239937642258
 31
0.0
  0
LINE
  5
FE3
330
1F
100
AcDbEntity
  8
STR
100
AcDbLine
 10
2363.714838757294
 20
581.5239937642266
 30
0.0
 11
2343.714838757294
 21
601.5239937642256
 31
0.0
  0
LINE
  5
FE4
330
1F
100
AcDbEntity
  8
STR
100
AcDbLine
 10
2386.885172447778
 20
576.3141723158805
 30
0.0
 11
2363.714838757294
 21
599.4845060063644
 31
0.0
  0
LINE
  5
FE5
330
1F
100
AcDbEntity
  8
STR
100
AcDbLine
 10
2363.714838757294
 20
599.4845060063646
 30
0.0
 11
2356.885172447778
 21
606.3141723158805
 31
0.0
  0
LINE
  5
FE6
330
1F
100
AcDbEntity
  8
STR
100
AcDbLine
 10
2403.714838757294
 20
577.4450182485029
 30
0.0
 11
2374.845684689916
 21
606.3141723158808
 31
0.0
  0
LINE
  5
FE7
330
1F
100
AcDbEntity
  8
STR
100
AcDbLine
 10
2374.845684689916
 20
606.3141723158808
 30
0.0
 11
2363.714838757294
 21
617.4450182485029
 31
0.0
  0
LINE
  5
FE8
330
1F
100
AcDbEntity
  8
STR
100
AcDbLine
 10
2403.714838757295
 20
595.4055304906405
 30
0.0
 11
2392.806196932054
 21
606.3141723158808
 31
0.0
  0
LINE
  5
FE9
330
1F
100
AcDbEntity
  8
STR
100
AcDbLine
 10
2392.806196932054
 20
606.3141723158808
 30
0.0
 11
2363.714838757294
 21
635.4055304906412
 31
0.0
  0
LINE
  5
FEA
330
1F
100
AcDbEntity
  8
STR
100
AcDbLine
 10
2403.714838757295
 20
613.3660427327789
 30
0.0
 11
2363.714838757294
 21
653.3660427327795
 31
0.0
  0
LINE
  5
FEB
330
1F
100
AcDbEntity
  8
STR
100
AcDbLine
 10
2403.714838757295
 20
631.3265549749171
 30
0.0
 11
2363.714838757294
 21
671.3265549749173
 31
0.0
  0
LINE
  5
FEC
330
1F
100
AcDbEntity
  8
STR
100
AcDbLine
 10
2403.714838757295
 20
649.2870672170554
 30
0.0
 11
2363.714838757294
 21
689.2870672170556
 31
0.0
  0
LINE
  5
FED
330
1F
100
AcDbEntity
  8
STR
100
AcDbLine
 10
2403.714838757295
 20
667.2475794591939
 30
0.0
 11
2365.648245900608
 21
705.3141723158803
 31
0.0
  0
LINE
  5
FEE
330
1F
100
AcDbEntity
  8
STR
100
AcDbLine
 10
2365.648245900608
 20
705.3141723158808
 30
0.0
 11
2363.714838757295
 21
707.2475794591935
 31
0.0
  0
LINE
  5
FEF
330
1F
100
AcDbEntity
  8
STR
100
AcDbLine
 10
2403.714838757294
 20
685.2080917013324
 30
0.0
 11
2383.608758142746
 21
705.3141723158808
 31
0.0
  0
LINE
  5
FF0
330
1F
100
AcDbEntity
  8
STR
100
AcDbLine
 10
2383.608758142746
 20
705.3141723158808
 30
0.0
 11
2363.714838757294
 21
725.2080917013325
 31
0.0
  0
LINE
  5
FF1
330
1F
100
AcDbEntity
  8
STR
100
AcDbLine
 10
2403.714838757295
 20
703.1686039434705
 30
0.0
 11
2401.569270384884
 21
705.3141723158805
 31
0.0
  0
LINE
  5
FF2
330
1F
100
AcDbEntity
  8
STR
100
AcDbLine
 10
2401.569270384884
 20
705.3141723158808
 30
0.0
 11
2371.569270384884
 21
735.3141723158808
 31
0.0
  0
LINE
  5
FF3
330
1F
100
AcDbEntity
  8
STR
100
AcDbLine
 10
2403.714838757294
 20
721.1291161856095
 30
0.0
 11
2389.529782627023
 21
735.3141723158808
 31
0.0
  0
LINE
  5
FF4
330
1F
100
AcDbEntity
  8
STR
100
AcDbLine
 10
2550.964147963501
 20
576.3141723158805
 30
0.0
 11
2543.714838757294
 21
583.5634815220876
 31
0.0
  0
LINE
  5
FF5
330
1F
100
AcDbEntity
  8
STR
100
AcDbLine
 10
2568.924660205639
 20
576.3141723158805
 30
0.0
 11
2563.714838757293
 21
581.5239937642261
 31
0.0
  0
LINE
  5
FF6
330
1F
100
AcDbEntity
  8
STR
100
AcDbLine
 10
2563.714838757293
 20
581.5239937642261
 30
0.0
 11
2543.714838757294
 21
601.5239937642261
 31
0.0
  0
LINE
  5
FF7
330
1F
100
AcDbEntity
  8
STR
100
AcDbLine
 10
2586.885172447777
 20
576.3141723158805
 30
0.0
 11
2563.714838757293
 21
599.4845060063644
 31
0.0
  0
LINE
  5
FF8
330
1F
100
AcDbEntity
  8
STR
100
AcDbLine
 10
2563.714838757293
 20
599.4845060063644
 30
0.0
 11
2556.885172447778
 21
606.3141723158805
 31
0.0
  0
LINE
  5
FF9
330
1F
100
AcDbEntity
  8
STR
100
AcDbLine
 10
2603.714838757293
 20
577.4450182485029
 30
0.0
 11
2574.845684689916
 21
606.3141723158808
 31
0.0
  0
LINE
  5
FFA
330
1F
100
AcDbEntity
  8
STR
100
AcDbLine
 10
2574.845684689916
 20
606.3141723158808
 30
0.0
 11
2563.714838757293
 21
617.4450182485029
 31
0.0
  0
LINE
  5
FFB
330
1F
100
AcDbEntity
  8
STR
100
AcDbLine
 10
2603.714838757294
 20
595.4055304906405
 30
0.0
 11
2592.806196932054
 21
606.3141723158808
 31
0.0
  0
LINE
  5
FFC
330
1F
100
AcDbEntity
  8
STR
100
AcDbLine
 10
2592.806196932054
 20
606.3141723158808
 30
0.0
 11
2563.714838757293
 21
635.405530490641
 31
0.0
  0
LINE
  5
FFD
330
1F
100
AcDbEntity
  8
STR
100
AcDbLine
 10
2603.714838757294
 20
613.3660427327789
 30
0.0
 11
2563.714838757294
 21
653.3660427327795
 31
0.0
  0
LINE
  5
FFE
330
1F
100
AcDbEntity
  8
STR
100
AcDbLine
 10
2603.714838757294
 20
631.3265549749171
 30
0.0
 11
2563.714838757294
 21
671.3265549749171
 31
0.0
  0
LINE
  5
FFF
330
1F
100
AcDbEntity
  8
STR
100
AcDbLine
 10
2603.714838757294
 20
649.2870672170556
 30
0.0
 11
2563.714838757294
 21
689.2870672170554
 31
0.0
  0
LINE
  5
1000
330
1F
100
AcDbEntity
  8
STR
100
AcDbLine
 10
2603.714838757294
 20
667.2475794591941
 30
0.0
 11
2565.648245900607
 21
705.3141723158805
 31
0.0
  0
LINE
  5
1001
330
1F
100
AcDbEntity
  8
STR
100
AcDbLine
 10
2565.648245900607
 20
705.3141723158805
 30
0.0
 11
2563.714838757295
 21
707.2475794591937
 31
0.0
  0
LINE
  5
1002
330
1F
100
AcDbEntity
  8
STR
100
AcDbLine
 10
2603.714838757294
 20
685.2080917013327
 30
0.0
 11
2583.608758142746
 21
705.3141723158805
 31
0.0
  0
LINE
  5
1003
330
1F
100
AcDbEntity
  8
STR
100
AcDbLine
 10
2583.608758142746
 20
705.3141723158808
 30
0.0
 11
2563.714838757294
 21
725.2080917013326
 31
0.0
  0
LINE
  5
1004
330
1F
100
AcDbEntity
  8
STR
100
AcDbLine
 10
2603.714838757294
 20
703.1686039434707
 30
0.0
 11
2601.569270384884
 21
705.3141723158805
 31
0.0
  0
LINE
  5
1005
330
1F
100
AcDbEntity
  8
STR
100
AcDbLine
 10
2601.569270384884
 20
705.3141723158805
 30
0.0
 11
2571.569270384884
 21
735.3141723158805
 31
0.0
  0
LINE
  5
1006
330
1F
100
AcDbEntity
  8
STR
100
AcDbLine
 10
2603.714838757293
 20
721.1291161856095
 30
0.0
 11
2589.529782627022
 21
735.3141723158805
 31
0.0
  0
TEXT
  5
1007
330
1F
100
AcDbEntity
  8
STR
100
AcDbText
 10
3353.008834433274
 20
1589.497107365362
 30
0.0
 40
30.0
  1
420
100
AcDbText
  0
LINE
  5
1008
330
1F
100
AcDbEntity
  8
STR
  6
BYBLOCK
 62
     0
100
AcDbLine
 10
3580.508834433274
 20
1584.856091165362
 30
0.0
 11
3600.508834433274
 21
1579.497107365362
 31
0.0
  0
LINE
  5
1009
330
1F
100
AcDbEntity
  8
STR
  6
BYBLOCK
 62
     0
100
AcDbLine
 10
3600.508834433274
 20
1579.497107365362
 30
0.0
 11
3580.508834433274
 21
1574.138123565362
 31
0.0
  0
LINE
  5
100A
330
1F
100
AcDbEntity
  8
STR
  6
BYBLOCK
 62
     0
100
AcDbLine
 10
3600.508834433274
 20
1579.497107365362
 30
0.0
 11
3580.508834433274
 21
1579.497107365362
 31
0.0
  0
LINE
  5
100B
330
1F
100
AcDbEntity
  8
STR
  6
BYBLOCK
 62
     0
100
AcDbLine
 10
3200.508834433275
 20
1574.138123565362
 30
0.0
 11
3180.508834433274
 21
1579.497107365362
 31
0.0
  0
LINE
  5
100C
330
1F
100
AcDbEntity
  8
STR
  6
BYBLOCK
 62
     0
100
AcDbLine
 10
3180.508834433274
 20
1579.497107365362
 30
0.0
 11
3200.508834433275
 21
1584.856091165362
 31
0.0
  0
LINE
  5
100D
330
1F
100
AcDbEntity
  8
STR
  6
BYBLOCK
 62
     0
100
AcDbLine
 10
3180.508834433274
 20
1579.497107365362
 30
0.0
 11
3200.508834433275
 21
1579.497107365362
 31
0.0
  0
TEXT
  5
100E
330
1F
100
AcDbEntity
  8
STR
100
AcDbText
 10
3355.508834433275
 20
393.9717334916813
 30
0.0
 40
30.0
  1
500
100
AcDbText
  0
LINE
  5
100F
330
1F
100
AcDbEntity
  8
STR
  6
BYBLOCK
 62
     0
100
AcDbLine
 10
3620.508834433275
 20
389.3307172916813
 30
0.0
 11
3640.508834433275
 21
383.9717334916813
 31
0.0
  0
LINE
  5
1010
330
1F
100
AcDbEntity
  8
STR
  6
BYBLOCK
 62
     0
100
AcDbLine
 10
3640.508834433275
 20
383.9717334916813
 30
0.0
 11
3620.508834433275
 21
378.6127496916813
 31
0.0
  0
LINE
  5
1011
330
1F
100
AcDbEntity
  8
STR
  6
BYBLOCK
 62
     0
100
AcDbLine
 10
3640.508834433275
 20
383.9717334916813
 30
0.0
 11
3620.508834433275
 21
383.9717334916813
 31
0.0
  0
LINE
  5
1012
330
1F
100
AcDbEntity
  8
STR
  6
BYBLOCK
 62
     0
100
AcDbLine
 10
3160.508834433275
 20
378.6127496916813
 30
0.0
 11
3140.508834433274
 21
383.9717334916813
 31
0.0
  0
LINE
  5
1013
330
1F
100
AcDbEntity
  8
STR
  6
BYBLOCK
 62
     0
100
AcDbLine
 10
3140.508834433274
 20
383.9717334916813
 30
0.0
 11
3160.508834433275
 21
389.3307172916813
 31
0.0
  0
LINE
  5
1014
330
1F
100
AcDbEntity
  8
STR
  6
BYBLOCK
 62
     0
100
AcDbLine
 10
3140.508834433274
 20
383.9717334916813
 30
0.0
 11
3160.508834433275
 21
383.9717334916813
 31
0.0
  0
TEXT
  5
1015
330
1F
100
AcDbEntity
  8
STR
100
AcDbText
 10
2959.45188441113
 20
938.3141723158813
 30
0.0
 40
30.0
  1
MAX1200
 50
90.0
100
AcDbText
  0
LINE
  5
1016
330
1F
100
AcDbEntity
  8
STR
  6
BYBLOCK
 62
     0
100
AcDbLine
 10
2974.810868211129
 20
596.314172315881
 30
0.0
 11
2969.45188441113
 21
576.314172315881
 31
0.0
  0
LINE
  5
1017
330
1F
100
AcDbEntity
  8
STR
  6
BYBLOCK
 62
     0
100
AcDbLine
 10
2969.45188441113
 20
576.314172315881
 30
0.0
 11
2964.092900611129
 21
596.314172315881
 31
0.0
  0
LINE
  5
1018
330
1F
100
AcDbEntity
  8
STR
  6
BYBLOCK
 62
     0
100
AcDbLine
 10
2969.45188441113
 20
576.314172315881
 30
0.0
 11
2969.45188441113
 21
596.314172315881
 31
0.0
  0
LINE
  5
1019
330
1F
100
AcDbEntity
  8
STR
  6
BYBLOCK
 62
     0
100
AcDbLine
 10
2964.092900611131
 20
1460.314172315881
 30
0.0
 11
2969.45188441113
 21
1480.31417231588
 31
0.0
  0
LINE
  5
101A
330
1F
100
AcDbEntity
  8
STR
  6
BYBLOCK
 62
     0
100
AcDbLine
 10
2969.45188441113
 20
1480.31417231588
 30
0.0
 11
2974.81086821113
 21
1460.314172315881
 31
0.0
  0
LINE
  5
101B
330
1F
100
AcDbEntity
  8
STR
  6
BYBLOCK
 62
     0
100
AcDbLine
 10
2969.45188441113
 20
1480.31417231588
 30
0.0
 11
2969.45188441113
 21
1460.314172315881
 31
0.0
  0
TEXT
  5
101C
330
1F
100
AcDbEntity
  8
STR
100
AcDbText
 10
1608.714838757294
 20
1177.280914978628
 30
0.0
 40
30.0
  1
500
100
AcDbText
  0
LINE
  5
101D
330
1F
100
AcDbEntity
  8
STR
  6
BYBLOCK
 62
     0
100
AcDbLine
 10
1873.714838757294
 20
1172.639898778628
 30
0.0
 11
1893.714838757294
 21
1167.280914978628
 31
0.0
  0
LINE
  5
101E
330
1F
100
AcDbEntity
  8
STR
  6
BYBLOCK
 62
     0
100
AcDbLine
 10
1893.714838757294
 20
1167.280914978628
 30
0.0
 11
1873.714838757294
 21
1161.921931178627
 31
0.0
  0
LINE
  5
101F
330
1F
100
AcDbEntity
  8
STR
  6
BYBLOCK
 62
     0
100
AcDbLine
 10
1893.714838757294
 20
1167.280914978628
 30
0.0
 11
1873.714838757294
 21
1167.280914978628
 31
0.0
  0
LINE
  5
1020
330
1F
100
AcDbEntity
  8
STR
  6
BYBLOCK
 62
     0
100
AcDbLine
 10
1413.714838757294
 20
1161.921931178627
 30
0.0
 11
1393.714838757294
 21
1167.280914978628
 31
0.0
  0
LINE
  5
1021
330
1F
100
AcDbEntity
  8
STR
  6
BYBLOCK
 62
     0
100
AcDbLine
 10
1393.714838757294
 20
1167.280914978628
 30
0.0
 11
1413.714838757294
 21
1172.639898778628
 31
0.0
  0
LINE
  5
1022
330
1F
100
AcDbEntity
  8
STR
  6
BYBLOCK
 62
     0
100
AcDbLine
 10
1393.714838757294
 20
1167.280914978628
 30
0.0
 11
1413.714838757294
 21
1167.280914978628
 31
0.0
  0
TEXT
  5
1023
330
1F
100
AcDbEntity
  8
STR
100
AcDbText
 10
1608.714838757294
 20
1251.044163442247
 30
0.0
 40
30.0
  1
700
100
AcDbText
  0
LINE
  5
1024
330
1F
100
AcDbEntity
  8
STR
  6
BYBLOCK
 62
     0
100
AcDbLine
 10
2073.714838757294
 20
1246.403147242247
 30
0.0
 11
2093.714838757294
 21
1241.044163442247
 31
0.0
  0
LINE
  5
1025
330
1F
100
AcDbEntity
  8
STR
  6
BYBLOCK
 62
     0
100
AcDbLine
 10
2093.714838757294
 20
1241.044163442247
 30
0.0
 11
2073.714838757294
 21
1235.685179642247
 31
0.0
  0
LINE
  5
1026
330
1F
100
AcDbEntity
  8
STR
  6
BYBLOCK
 62
     0
100
AcDbLine
 10
2093.714838757294
 20
1241.044163442247
 30
0.0
 11
2073.714838757294
 21
1241.044163442247
 31
0.0
  0
LINE
  5
1027
330
1F
100
AcDbEntity
  8
STR
  6
BYBLOCK
 62
     0
100
AcDbLine
 10
1413.714838757294
 20
1235.685179642247
 30
0.0
 11
1393.714838757294
 21
1241.044163442247
 31
0.0
  0
LINE
  5
1028
330
1F
100
AcDbEntity
  8
STR
  6
BYBLOCK
 62
     0
100
AcDbLine
 10
1393.714838757294
 20
1241.044163442247
 30
0.0
 11
1413.714838757294
 21
1246.403147242247
 31
0.0
  0
LINE
  5
1029
330
1F
100
AcDbEntity
  8
STR
  6
BYBLOCK
 62
     0
100
AcDbLine
 10
1393.714838757294
 20
1241.044163442247
 30
0.0
 11
1413.714838757294
 21
1241.044163442247
 31
0.0
  0
TEXT
  5
102A
330
1F
100
AcDbEntity
  8
STR
100
AcDbText
 10
1601.214838757294
 20
1327.506872049095
 30
0.0
 40
30.0
  1
1000
100
AcDbText
  0
LINE
  5
102B
330
1F
100
AcDbEntity
  8
STR
  6
BYBLOCK
 62
     0
100
AcDbLine
 10
2373.714838757294
 20
1322.865855849095
 30
0.0
 11
2393.714838757294
 21
1317.506872049095
 31
0.0
  0
LINE
  5
102C
330
1F
100
AcDbEntity
  8
STR
  6
BYBLOCK
 62
     0
100
AcDbLine
 10
2393.714838757294
 20
1317.506872049095
 30
0.0
 11
2373.714838757294
 21
1312.147888249095
 31
0.0
  0
LINE
  5
102D
330
1F
100
AcDbEntity
  8
STR
  6
BYBLOCK
 62
     0
100
AcDbLine
 10
2393.714838757294
 20
1317.506872049095
 30
0.0
 11
2373.714838757294
 21
1317.506872049095
 31
0.0
  0
LINE
  5
102E
330
1F
100
AcDbEntity
  8
STR
  6
BYBLOCK
 62
     0
100
AcDbLine
 10
1413.714838757294
 20
1312.147888249095
 30
0.0
 11
1393.714838757294
 21
1317.506872049095
 31
0.0
  0
LINE
  5
102F
330
1F
100
AcDbEntity
  8
STR
  6
BYBLOCK
 62
     0
100
AcDbLine
 10
1393.714838757294
 20
1317.506872049095
 30
0.0
 11
1413.714838757294
 21
1322.865855849095
 31
0.0
  0
LINE
  5
1030
330
1F
100
AcDbEntity
  8
STR
  6
BYBLOCK
 62
     0
100
AcDbLine
 10
1393.714838757294
 20
1317.506872049095
 30
0.0
 11
1413.714838757294
 21
1317.506872049095
 31
0.0
  0
TEXT
  5
1031
330
1F
100
AcDbEntity
  8
STR
100
AcDbText
 10
1100.714838757294
 20
471.6785944763087
 30
0.0
 40
30.0
  1
1300（1500φ立坑用）
100
AcDbText
  0
LINE
  5
1032
330
1F
100
AcDbEntity
  8
STR
  6
BYBLOCK
 62
     0
100
AcDbLine
 10
1933.714838757293
 20
467.0375782763087
 30
0.0
 11
1953.714838757293
 21
461.6785944763087
 31
0.0
  0
LINE
  5
1033
330
1F
100
AcDbEntity
  8
STR
  6
BYBLOCK
 62
     0
100
AcDbLine
 10
1953.714838757293
 20
461.6785944763087
 30
0.0
 11
1933.714838757293
 21
456.3196106763087
 31
0.0
  0
LINE
  5
1034
330
1F
100
AcDbEntity
  8
STR
  6
BYBLOCK
 62
     0
100
AcDbLine
 10
1953.714838757293
 20
461.6785944763087
 30
0.0
 11
1933.714838757293
 21
461.6785944763087
 31
0.0
  0
LINE
  5
1035
330
1F
100
AcDbEntity
  8
STR
  6
BYBLOCK
 62
     0
100
AcDbLine
 10
673.7148387572942
 20
456.3196106763087
 30
0.0
 11
653.7148387572942
 21
461.6785944763087
 31
0.0
  0
LINE
  5
1036
330
1F
100
AcDbEntity
  8
STR
  6
BYBLOCK
 62
     0
100
AcDbLine
 10
653.7148387572942
 20
461.6785944763087
 30
0.0
 11
673.7148387572942
 21
467.0375782763087
 31
0.0
  0
LINE
  5
1037
330
1F
100
AcDbEntity
  8
STR
  6
BYBLOCK
 62
     0
100
AcDbLine
 10
653.7148387572942
 20
461.6785944763087
 30
0.0
 11
673.7148387572942
 21
461.6785944763087
 31
0.0
  0
TEXT
  5
1038
330
1F
100
AcDbEntity
  8
STR
100
AcDbText
 10
1095.714838757294
 20
395.3635946338872
 30
0.0
 40
30.0
  1
1750（2000φ立坑用）
100
AcDbText
  0
LINE
  5
1039
330
1F
100
AcDbEntity
  8
STR
  6
BYBLOCK
 62
     0
100
AcDbLine
 10
2383.714838757293
 20
390.7225784338872
 30
0.0
 11
2403.714838757293
 21
385.3635946338872
 31
0.0
  0
LINE
  5
103A
330
1F
100
AcDbEntity
  8
STR
  6
BYBLOCK
 62
     0
100
AcDbLine
 10
2403.714838757293
 20
385.3635946338872
 30
0.0
 11
2383.714838757293
 21
380.0046108338873
 31
0.0
  0
LINE
  5
103B
330
1F
100
AcDbEntity
  8
STR
  6
BYBLOCK
 62
     0
100
AcDbLine
 10
2403.714838757293
 20
385.3635946338872
 30
0.0
 11
2383.714838757293
 21
385.3635946338872
 31
0.0
  0
LINE
  5
103C
330
1F
100
AcDbEntity
  8
STR
  6
BYBLOCK
 62
     0
100
AcDbLine
 10
673.7148387572942
 20
380.0046108338873
 30
0.0
 11
653.7148387572942
 21
385.3635946338872
 31
0.0
  0
LINE
  5
103D
330
1F
100
AcDbEntity
  8
STR
  6
BYBLOCK
 62
     0
100
AcDbLine
 10
653.7148387572942
 20
385.3635946338872
 30
0.0
 11
673.7148387572942
 21
390.7225784338872
 31
0.0
  0
LINE
  5
103E
330
1F
100
AcDbEntity
  8
STR
  6
BYBLOCK
 62
     0
100
AcDbLine
 10
653.7148387572942
 20
385.3635946338872
 30
0.0
 11
673.7148387572942
 21
385.3635946338872
 31
0.0
  0
TEXT
  5
103F
330
1F
100
AcDbEntity
  8
STR
100
AcDbText
 10
1093.214838757294
 20
319.0485947914658
 30
0.0
 40
30.0
  1
1950（2500φ立坑用）
100
AcDbText
  0
LINE
  5
1040
330
1F
100
AcDbEntity
  8
STR
  6
BYBLOCK
 62
     0
100
AcDbLine
 10
2583.714838757293
 20
314.4075785914657
 30
0.0
 11
2603.714838757293
 21
309.0485947914658
 31
0.0
  0
LINE
  5
1041
330
1F
100
AcDbEntity
  8
STR
  6
BYBLOCK
 62
     0
100
AcDbLine
 10
2603.714838757293
 20
309.0485947914658
 30
0.0
 11
2583.714838757293
 21
303.6896109914658
 31
0.0
  0
LINE
  5
1042
330
1F
100
AcDbEntity
  8
STR
  6
BYBLOCK
 62
     0
100
AcDbLine
 10
2603.714838757293
 20
309.0485947914658
 30
0.0
 11
2583.714838757293
 21
309.0485947914658
 31
0.0
  0
LINE
  5
1043
330
1F
100
AcDbEntity
  8
STR
  6
BYBLOCK
 62
     0
100
AcDbLine
 10
673.7148387572942
 20
303.6896109914658
 30
0.0
 11
653.7148387572942
 21
309.0485947914658
 31
0.0
  0
LINE
  5
1044
330
1F
100
AcDbEntity
  8
STR
  6
BYBLOCK
 62
     0
100
AcDbLine
 10
653.7148387572942
 20
309.0485947914658
 30
0.0
 11
673.7148387572942
 21
314.4075785914657
 31
0.0
  0
LINE
  5
1045
330
1F
100
AcDbEntity
  8
STR
  6
BYBLOCK
 62
     0
100
AcDbLine
 10
653.7148387572942
 20
309.0485947914658
 30
0.0
 11
673.7148387572942
 21
309.0485947914658
 31
0.0
  0
TEXT
  5
1046
330
1F
100
AcDbEntity
  8
STR
100
AcDbText
 10
438.7051022842222
 20
798.3141723158812
 30
0.0
 40
30.0
  1
524
 50
90.0
100
AcDbText
  0
LINE
  5
1047
330
1F
100
AcDbEntity
  8
STR
  6
BYBLOCK
 62
     0
100
AcDbLine
 10
443.3461184842224
 20
1080.314172315881
 30
0.0
 11
448.7051022842224
 21
1100.314172315881
 31
0.0
  0
LINE
  5
1048
330
1F
100
AcDbEntity
  8
STR
  6
BYBLOCK
 62
     0
100
AcDbLine
 10
448.7051022842224
 20
1100.314172315881
 30
0.0
 11
454.0640860842223
 21
1080.314172315881
 31
0.0
  0
LINE
  5
1049
330
1F
100
AcDbEntity
  8
STR
  6
BYBLOCK
 62
     0
100
AcDbLine
 10
448.7051022842224
 20
1100.314172315881
 30
0.0
 11
448.7051022842224
 21
1080.314172315881
 31
0.0
  0
LINE
  5
104A
330
1F
100
AcDbEntity
  8
STR
  6
BYBLOCK
 62
     0
100
AcDbLine
 10
454.0640860842223
 20
596.3141723158811
 30
0.0
 11
448.7051022842223
 21
576.3141723158811
 31
0.0
  0
LINE
  5
104B
330
1F
100
AcDbEntity
  8
STR
  6
BYBLOCK
 62
     0
100
AcDbLine
 10
448.7051022842223
 20
576.3141723158811
 30
0.0
 11
443.3461184842223
 21
596.3141723158811
 31
0.0
  0
LINE
  5
104C
330
1F
100
AcDbEntity
  8
STR
  6
BYBLOCK
 62
     0
100
AcDbLine
 10
448.7051022842223
 20
576.3141723158811
 30
0.0
 11
448.7051022842223
 21
596.3141723158811
 31
0.0
  0
TEXT
  5
104D
330
1F
100
AcDbEntity
  8
STR
100
AcDbText
 10
506.9693552211737
 20
620.8141723158812
 30
0.0
 40
30.0
  1
159
 50
90.0
100
AcDbText
  0
LINE
  5
104E
330
1F
100
AcDbEntity
  8
STR
  6
BYBLOCK
 62
     0
100
AcDbLine
 10
511.6103714211738
 20
715.3141723158811
 30
0.0
 11
516.9693552211738
 21
735.3141723158811
 31
0.0
  0
LINE
  5
104F
330
1F
100
AcDbEntity
  8
STR
  6
BYBLOCK
 62
     0
100
AcDbLine
 10
516.9693552211738
 20
735.3141723158811
 30
0.0
 11
522.3283390211738
 21
715.3141723158811
 31
0.0
  0
LINE
  5
1050
330
1F
100
AcDbEntity
  8
STR
  6
BYBLOCK
 62
     0
100
AcDbLine
 10
516.9693552211738
 20
735.3141723158811
 30
0.0
 11
516.9693552211738
 21
715.3141723158811
 31
0.0
  0
LINE
  5
1051
330
1F
100
AcDbEntity
  8
STR
  6
BYBLOCK
 62
     0
100
AcDbLine
 10
522.3283390211738
 20
596.3141723158811
 30
0.0
 11
516.9693552211738
 21
576.3141723158811
 31
0.0
  0
LINE
  5
1052
330
1F
100
AcDbEntity
  8
STR
  6
BYBLOCK
 62
     0
100
AcDbLine
 10
516.9693552211738
 20
576.3141723158811
 30
0.0
 11
511.6103714211738
 21
596.3141723158811
 31
0.0
  0
LINE
  5
1053
330
1F
100
AcDbEntity
  8
STR
  6
BYBLOCK
 62
     0
100
AcDbLine
 10
516.9693552211738
 20
576.3141723158811
 30
0.0
 11
516.9693552211738
 21
596.3141723158811
 31
0.0
  0
LINE
  5
1054
330
1F
100
AcDbEntity
  8
STR
  6
BYBLOCK
 62
     0
100
AcDbLine
 10
522.3283390211738
 20
780.3141723158812
 30
0.0
 11
516.9693552211738
 21
760.3141723158812
 31
0.0
  0
LINE
  5
1055
330
1F
100
AcDbEntity
  8
STR
  6
BYBLOCK
 62
     0
100
AcDbLine
 10
516.9693552211738
 20
760.3141723158812
 30
0.0
 11
511.6103714211738
 21
780.3141723158812
 31
0.0
  0
LINE
  5
1056
330
1F
100
AcDbEntity
  8
STR
  6
BYBLOCK
 62
     0
100
AcDbLine
 10
516.9693552211738
 20
760.3141723158812
 30
0.0
 11
516.9693552211738
 21
780.3141723158812
 31
0.0
  0
LINE
  5
1057
330
1F
100
AcDbEntity
  8
STR
  6
BYBLOCK
 62
     0
100
AcDbLine
 10
511.6103714211738
 20
715.3141723158811
 30
0.0
 11
516.9693552211738
 21
735.3141723158811
 31
0.0
  0
LINE
  5
1058
330
1F
100
AcDbEntity
  8
STR
  6
BYBLOCK
 62
     0
100
AcDbLine
 10
516.9693552211738
 20
735.3141723158811
 30
0.0
 11
522.3283390211738
 21
715.3141723158811
 31
0.0
  0
LINE
  5
1059
330
1F
100
AcDbEntity
  8
STR
  6
BYBLOCK
 62
     0
100
AcDbLine
 10
516.9693552211738
 20
735.3141723158811
 30
0.0
 11
516.9693552211738
 21
715.3141723158811
 31
0.0
  0
TEXT
  5
105A
330
1F
100
AcDbEntity
  8
STR
100
AcDbText
 10
506.9693552211738
 20
722.8141723158812
 30
0.0
 40
30.0
  1
25
 50
90.0
100
AcDbText
  0
TEXT
  5
105B
330
1F
100
AcDbEntity
  8
STR
100
AcDbText
 10
506.9693552211737
 20
892.8141723158812
 30
0.0
 40
30.0
  1
340
 50
90.0
100
AcDbText
  0
LINE
  5
105C
330
1F
100
AcDbEntity
  8
STR
  6
BYBLOCK
 62
     0
100
AcDbLine
 10
511.6103714211739
 20
1080.314172315881
 30
0.0
 11
516.9693552211739
 21
1100.314172315881
 31
0.0
  0
LINE
  5
105D
330
1F
100
AcDbEntity
  8
STR
  6
BYBLOCK
 62
     0
100
AcDbLine
 10
516.9693552211739
 20
1100.314172315881
 30
0.0
 11
522.3283390211739
 21
1080.314172315881
 31
0.0
  0
LINE
  5
105E
330
1F
100
AcDbEntity
  8
STR
  6
BYBLOCK
 62
     0
100
AcDbLine
 10
516.9693552211739
 20
1100.314172315881
 30
0.0
 11
516.9693552211739
 21
1080.314172315881
 31
0.0
  0
LINE
  5
105F
330
1F
100
AcDbEntity
  8
STR
  6
BYBLOCK
 62
     0
100
AcDbLine
 10
522.3283390211738
 20
780.3141723158812
 30
0.0
 11
516.9693552211738
 21
760.3141723158812
 31
0.0
  0
LINE
  5
1060
330
1F
100
AcDbEntity
  8
STR
  6
BYBLOCK
 62
     0
100
AcDbLine
 10
516.9693552211738
 20
760.3141723158812
 30
0.0
 11
511.6103714211738
 21
780.3141723158812
 31
0.0
  0
LINE
  5
1061
330
1F
100
AcDbEntity
  8
STR
  6
BYBLOCK
 62
     0
100
AcDbLine
 10
516.9693552211738
 20
760.3141723158812
 30
0.0
 11
516.9693552211738
 21
780.3141723158812
 31
0.0
  0
TEXT
  5
1062
330
1F
100
AcDbEntity
  8
STR
100
AcDbText
 10
928.7148387572944
 20
1631.28017670809
 30
0.0
 40
30.0
  1
700
100
AcDbText
  0
LINE
  5
1063
330
1F
100
AcDbEntity
  8
STR
  6
BYBLOCK
 62
     0
100
AcDbLine
 10
1293.714838757294
 20
1626.63916050809
 30
0.0
 11
1313.714838757294
 21
1621.28017670809
 31
0.0
  0
LINE
  5
1064
330
1F
100
AcDbEntity
  8
STR
  6
BYBLOCK
 62
     0
100
AcDbLine
 10
1313.714838757294
 20
1621.28017670809
 30
0.0
 11
1293.714838757294
 21
1615.92119290809
 31
0.0
  0
LINE
  5
1065
330
1F
100
AcDbEntity
  8
STR
  6
BYBLOCK
 62
     0
100
AcDbLine
 10
1313.714838757294
 20
1621.28017670809
 30
0.0
 11
1293.714838757294
 21
1621.28017670809
 31
0.0
  0
LINE
  5
1066
330
1F
100
AcDbEntity
  8
STR
  6
BYBLOCK
 62
     0
100
AcDbLine
 10
633.7148387572942
 20
1615.92119290809
 30
0.0
 11
613.7148387572942
 21
1621.28017670809
 31
0.0
  0
LINE
  5
1067
330
1F
100
AcDbEntity
  8
STR
  6
BYBLOCK
 62
     0
100
AcDbLine
 10
613.7148387572942
 20
1621.28017670809
 30
0.0
 11
633.7148387572942
 21
1626.63916050809
 31
0.0
  0
LINE
  5
1068
330
1F
100
AcDbEntity
  8
STR
  6
BYBLOCK
 62
     0
100
AcDbLine
 10
613.7148387572942
 20
1621.28017670809
 30
0.0
 11
633.7148387572942
 21
1621.28017670809
 31
0.0
  0
TEXT
  5
1069
330
1F
100
AcDbEntity
  8
STR
100
AcDbText
 10
976.2148387572944
 20
1568.168176440122
 30
0.0
 40
30.0
  1
610
100
AcDbText
  0
LINE
  5
106A
330
1F
100
AcDbEntity
  8
STR
  6
BYBLOCK
 62
     0
100
AcDbLine
 10
723.7148387572942
 20
1552.809192640122
 30
0.0
 11
703.7148387572942
 21
1558.168176440122
 31
0.0
  0
LINE
  5
106B
330
1F
100
AcDbEntity
  8
STR
  6
BYBLOCK
 62
     0
100
AcDbLine
 10
703.7148387572942
 20
1558.168176440122
 30
0.0
 11
723.7148387572942
 21
1563.527160240123
 31
0.0
  0
LINE
  5
106C
330
1F
100
AcDbEntity
  8
STR
  6
BYBLOCK
 62
     0
100
AcDbLine
 10
703.7148387572942
 20
1558.168176440122
 30
0.0
 11
723.7148387572942
 21
1558.168176440122
 31
0.0
  0
LINE
  5
106D
330
1F
100
AcDbEntity
  8
STR
  6
BYBLOCK
 62
     0
100
AcDbLine
 10
1293.714838757294
 20
1563.527160240123
 30
0.0
 11
1313.714838757294
 21
1558.168176440122
 31
0.0
  0
LINE
  5
106E
330
1F
100
AcDbEntity
  8
STR
  6
BYBLOCK
 62
     0
100
AcDbLine
 10
1313.714838757294
 20
1558.168176440122
 30
0.0
 11
1293.714838757294
 21
1552.809192640122
 31
0.0
  0
LINE
  5
106F
330
1F
100
AcDbEntity
  8
STR
  6
BYBLOCK
 62
     0
100
AcDbLine
 10
1313.714838757294
 20
1558.168176440122
 30
0.0
 11
1293.714838757294
 21
1558.168176440122
 31
0.0
  0
LINE
  5
1070
330
1F
100
AcDbEntity
  8
STR
  6
BYBLOCK
 62
     0
100
AcDbLine
 10
2232.827014360418
 20
820.3141723158809
 30
0.0
 11
2227.468030560418
 21
800.3141723158808
 31
0.0
  0
LINE
  5
1071
330
1F
100
AcDbEntity
  8
STR
  6
BYBLOCK
 62
     0
100
AcDbLine
 10
2227.468030560418
 20
800.3141723158808
 30
0.0
 11
2222.109046760418
 21
820.3141723158809
 31
0.0
  0
LINE
  5
1072
330
1F
100
AcDbEntity
  8
STR
  6
BYBLOCK
 62
     0
100
AcDbLine
 10
2227.468030560418
 20
800.3141723158808
 30
0.0
 11
2227.468030560418
 21
820.3141723158809
 31
0.0
  0
LINE
  5
1073
330
1F
100
AcDbEntity
  8
STR
  6
BYBLOCK
 62
     0
100
AcDbLine
 10
2222.109046760419
 20
1380.314172315881
 30
0.0
 11
2227.468030560419
 21
1400.314172315881
 31
0.0
  0
LINE
  5
1074
330
1F
100
AcDbEntity
  8
STR
  6
BYBLOCK
 62
     0
100
AcDbLine
 10
2227.468030560419
 20
1400.314172315881
 30
0.0
 11
2232.827014360418
 21
1380.314172315881
 31
0.0
  0
LINE
  5
1075
330
1F
100
AcDbEntity
  8
STR
  6
BYBLOCK
 62
     0
100
AcDbLine
 10
2227.468030560419
 20
1400.314172315881
 30
0.0
 11
2227.468030560419
 21
1380.314172315881
 31
0.0
  0
VIEWPORT
  5
518
102
{ACAD_XDICTIONARY
360
1080
102
}
330
50
100
AcDbEntity
 67
     1
  8
0
100
AcDbViewport
 10
142.6104125976562
 20
99.11291408538819
 30
0.0
 40
314.1924854736328
 41
243.5479638950893
 68
     1
 69
     1
1001
ACAD
1000
MVIEW
1002
{
1070
    16
1010
0.0
1020
0.0
1030
0.0
1010
0.0
1020
0.0
1030
1.0
1040
0.0
1040
243.5479638950893
1040
142.6104125976562
1040
99.11291408538819
1040
50.0
1040
0.0
1040
0.0
1070
     0
1070
  1000
1070
     1
1070
     1
1070
     0
1070
     0
1070
     0
1070
     0
1040
0.0
1040
0.0
1040
0.0
1040
10.0
1040
10.0
1040
10.0
1040
10.0
1070
     0
1002
{
1002
}
1002
}
  0
VIEWPORT
  5
51A
102
{ACAD_XDICTIONARY
360
1082
102
}
330
50
100
AcDbEntity
 67
     1
  8
STR
100
AcDbViewport
 10
142.3056082280019
 20
98.91807580822984
 30
0.0
 40
290.5836761339516
 41
204.5802896926689
 68
     2
 69
     2
1001
ACAD
1000
MVIEW
1002
{
1070
    16
1010
0.0
1020
0.0
1030
0.0
1010
0.0
1020
0.0
1030
1.0
1040
0.0
1040
4091.60579385338
1040
2227.690672722246
1040
1402.462180436867
1040
50.0
1040
0.0
1040
0.0
1070
     0
1070
  1000
1070
     1
1070
     3
1070
     0
1070
     0
1070
     0
1070
     0
1040
0.0
1040
0.0
1040
0.0
1040
10.0
1040
10.0
1040
10.0
1040
10.0
1070
     0
1002
{
1002
}
1002
}
  0
ENDSEC
  0
SECTION
  2
OBJECTS
  0
DICTIONARY
  5
C
330
0
100
AcDbDictionary
  3
ACAD_COLOR
350
6B
  3
ACAD_GROUP
350
D
  3
ACAD_LAYOUT
350
1A
  3
ACAD_MATERIAL
350
6A
  3
ACAD_MLINESTYLE
350
17
  3
ACAD_PLOTSETTINGS
350
19
  3
ACAD_PLOTSTYLENAME
350
E
  3
ACDBHEADERROUNDTRIPXREC
350
10D4
  3
ACDBVARIABLEDICTIONARY
350
5E
  0
DICTIONARY
  5
10F5
330
1F
100
AcDbDictionary
280
     1
  3
ACAD_LAYOUTSELFREF
360
10F6
  0
DICTIONARY
  5
10F7
330
50
100
AcDbDictionary
280
     1
  3
ACAD_LAYOUTSELFREF
360
10F8
  0
DICTIONARY
  5
1080
330
518
100
AcDbDictionary
280
     1
  3
ACAD_XREC_ROUNDTRIP
360
1081
  0
DICTIONARY
  5
1082
330
51A
100
AcDbDictionary
280
     1
  3
ACAD_XREC_ROUNDTRIP
360
1083
  0
DICTIONARY
  5
6B
102
{ACAD_REACTORS
330
C
102
}
330
C
100
AcDbDictionary
  0
DICTIONARY
  5
D
102
{ACAD_REACTORS
330
C
102
}
330
C
100
AcDbDictionary
  0
DICTIONARY
  5
1A
102
{ACAD_REACTORS
330
C
102
}
330
C
100
AcDbDictionary
  0
DICTIONARY
  5
6A
102
{ACAD_REACTORS
330
C
102
}
330
C
100
AcDbDictionary
  0
DICTIONARY
  5
17
102
{ACAD_REACTORS
330
C
102
}
330
C
100
AcDbDictionary
  3
STANDARD
350
18
  0
DICTIONARY
  5
19
102
{ACAD_REACTORS
330
C
102
}
330
C
100
AcDbDictionary
  0
ACDBDICTIONARYWDFLT
  5
E
102
{ACAD_REACTORS
330
C
102
}
330
C
100
AcDbDictionary
281
     1
  3
Normal
350
F
100
AcDbDictionaryWithDefault
340
F
  0
DICTIONARY
  5
10D4
102
{ACAD_REACTORS
330
C
102
}
330
C
100
AcDbDictionary
  3
CEPSNTYPE
350
10DE
  3
DIMSTYLEDATA
350
10E2
  3
FINGERPRINTGUID
350
10DF
  3
HYPERLINKBASE
350
10D7
  3
INSUNITS
350
10DD
  3
LAYOUTDICT
350
10D9
  3
LWETCUNION
350
10DC
  3
PLOTSETDICT
350
10DA
  3
PLOTSTYLNAMDICT
350
10DB
  3
PSVPSCALE
350
10E1
  3
PUCSBASE
350
10E5
  3
PUCSORGBACK
350
10EB
  3
PUCSORGBOTTOM
350
10E7
  3
PUCSORGFRONT
350
10EA
  3
PUCSORGLEFT
350
10E8
  3
PUCSORGRIGHT
350
10E9
  3
PUCSORGTOP
350
10E6
  3
PUCSORTHOREF
350
10E3
  3
PUCSORTHOVIEW
350
10E4
  3
STYLESHEET
350
10D8
  3
TSTACKALIGN
350
10D5
  3
TSTACKSIZE
350
10D6
  3
UCSBASE
350
10EE
  3
UCSORGBACK
350
10F4
  3
UCSORGBOTTOM
350
10F0
  3
UCSORGFRONT
350
10F3
  3
UCSORGLEFT
350
10F1
  3
UCSORGRIGHT
350
10F2
  3
UCSORGTOP
350
10EF
  3
UCSORTHOREF
350
10EC
  3
UCSORTHOVIEW
350
10ED
  3
VERSIONGUID
350
10E0
  0
DICTIONARY
  5
5E
102
{ACAD_REACTORS
330
C
102
}
330
C
100
AcDbDictionary
  3
DIMASSOC
350
5F
  3
HIDETEXT
350
63
  3
PROJECTNAME
350
1088
  0
XRECORD
  5
10F6
102
{ACAD_REACTORS
330
10F5
102
}
330
10F5
100
AcDbXrecord
340
1F
  0
XRECORD
  5
10F8
102
{ACAD_REACTORS
330
10F7
102
}
330
10F7
100
AcDbXrecord
340
50
  0
XRECORD
  5
1081
102
{ACAD_REACTORS
330
1080
102
}
330
1080
100
AcDbXrecord
102
SHADEPLOT
 70
     0
  0
XRECORD
  5
1083
102
{ACAD_REACTORS
330
1082
102
}
330
1082
100
AcDbXrecord
102
SHADEPLOT
 70
     0
  0
MLINESTYLE
  5
18
102
{ACAD_REACTORS
330
17
102
}
330
17
100
AcDbMlineStyle
  2
STANDARD
 70
     0
  3

 62
   256
 51
90.0
 52
90.0
 71
     2
 49
0.5
 62
   256
  6
BYLAYER
 49
-0.5
 62
   256
  6
BYLAYER
  0
ACDBPLACEHOLDER
  5
F
102
{ACAD_REACTORS
330
E
102
}
330
E
100
AcDbPlaceHolder
280
     0
  0
XRECORD
  5
10DE
102
{ACAD_REACTORS
330
10D4
102
}
330
10D4
100
AcDbXrecord
 90
        0
  0
XRECORD
  5
10E2
102
{ACAD_REACTORS
330
10D4
102
}
330
10D4
100
AcDbXrecord
1000
DSTYLE
1002
{
1070
   278
 70
    44
1070
   289
 70
     2
1070
   341
340
100
1070
   342
340
FA
1002
}
  0
XRECORD
  5
10DF
102
{ACAD_REACTORS
330
10D4
102
}
330
10D4
100
AcDbXrecord
  1
{FDEAD578-A652-11D2-9A35-0060089B3A3F}
  0
XRECORD
  5
10D7
102
{ACAD_REACTORS
330
10D4
102
}
330
10D4
100
AcDbXrecord
  1

  0
XRECORD
  5
10DD
102
{ACAD_REACTORS
330
10D4
102
}
330
10D4
100
AcDbXrecord
 90
        4
  0
XRECORD
  5
10D9
102
{ACAD_REACTORS
330
10D4
102
}
330
10D4
100
AcDbXrecord
340
1A
  0
XRECORD
  5
10DC
102
{ACAD_REACTORS
330
10D4
102
}
330
10D4
100
AcDbXrecord
 90
    10781
  0
XRECORD
  5
10DA
102
{ACAD_REACTORS
330
10D4
102
}
330
10D4
100
AcDbXrecord
340
19
  0
XRECORD
  5
10DB
102
{ACAD_REACTORS
330
10D4
102
}
330
10D4
100
AcDbXrecord
340
E
  0
XRECORD
  5
10E1
102
{ACAD_REACTORS
330
10D4
102
}
330
10D4
100
AcDbXrecord
 40
0.0
  0
XRECORD
  5
10E5
102
{ACAD_REACTORS
330
10D4
102
}
330
10D4
100
AcDbXrecord
340
0
  0
XRECORD
  5
10EB
102
{ACAD_REACTORS
330
10D4
102
}
330
10D4
100
AcDbXrecord
 10
0.0
 20
0.0
 30
0.0
  0
XRECORD
  5
10E7
102
{ACAD_REACTORS
330
10D4
102
}
330
10D4
100
AcDbXrecord
 10
0.0
 20
0.0
 30
0.0
  0
XRECORD
  5
10EA
102
{ACAD_REACTORS
330
10D4
102
}
330
10D4
100
AcDbXrecord
 10
0.0
 20
0.0
 30
0.0
  0
XRECORD
  5
10E8
102
{ACAD_REACTORS
330
10D4
102
}
330
10D4
100
AcDbXrecord
 10
0.0
 20
0.0
 30
0.0
  0
XRECORD
  5
10E9
102
{ACAD_REACTORS
330
10D4
102
}
330
10D4
100
AcDbXrecord
 10
0.0
 20
0.0
 30
0.0
  0
XRECORD
  5
10E6
102
{ACAD_REACTORS
330
10D4
102
}
330
10D4
100
AcDbXrecord
 10
0.0
 20
0.0
 30
0.0
  0
XRECORD
  5
10E3
102
{ACAD_REACTORS
330
10D4
102
}
330
10D4
100
AcDbXrecord
340
0
  0
XRECORD
  5
10E4
102
{ACAD_REACTORS
330
10D4
102
}
330
10D4
100
AcDbXrecord
 70
     0
  0
XRECORD
  5
10D8
102
{ACAD_REACTORS
330
10D4
102
}
330
10D4
100
AcDbXrecord
  1

  0
XRECORD
  5
10D5
102
{ACAD_REACTORS
330
10D4
102
}
330
10D4
100
AcDbXrecord
 90
        1
  0
XRECORD
  5
10D6
102
{ACAD_REACTORS
330
10D4
102
}
330
10D4
100
AcDbXrecord
 90
       70
  0
XRECORD
  5
10EE
102
{ACAD_REACTORS
330
10D4
102
}
330
10D4
100
AcDbXrecord
340
0
  0
XRECORD
  5
10F4
102
{ACAD_REACTORS
330
10D4
102
}
330
10D4
100
AcDbXrecord
 10
0.0
 20
0.0
 30
0.0
  0
XRECORD
  5
10F0
102
{ACAD_REACTORS
330
10D4
102
}
330
10D4
100
AcDbXrecord
 10
0.0
 20
0.0
 30
0.0
  0
XRECORD
  5
10F3
102
{ACAD_REACTORS
330
10D4
102
}
330
10D4
100
AcDbXrecord
 10
0.0
 20
0.0
 30
0.0
  0
XRECORD
  5
10F1
102
{ACAD_REACTORS
330
10D4
102
}
330
10D4
100
AcDbXrecord
 10
0.0
 20
0.0
 30
0.0
  0
XRECORD
  5
10F2
102
{ACAD_REACTORS
330
10D4
102
}
330
10D4
100
AcDbXrecord
 10
0.0
 20
0.0
 30
0.0
  0
XRECORD
  5
10EF
102
{ACAD_REACTORS
330
10D4
102
}
330
10D4
100
AcDbXrecord
 10
0.0
 20
0.0
 30
0.0
  0
XRECORD
  5
10EC
102
{ACAD_REACTORS
330
10D4
102
}
330
10D4
100
AcDbXrecord
340
0
  0
XRECORD
  5
10ED
102
{ACAD_REACTORS
330
10D4
102
}
330
10D4
100
AcDbXrecord
 70
     0
  0
XRECORD
  5
10E0
102
{ACAD_REACTORS
330
10D4
102
}
330
10D4
100
AcDbXrecord
  1
{80D55CD4-D9E0-49E1-9C44-C5086F73FDD7}
  0
DICTIONARYVAR
  5
5F
102
{ACAD_REACTORS
330
5E
102
}
330
5E
100
DictionaryVariables
280
     0
  1
2
  0
DICTIONARYVAR
  5
63
102
{ACAD_REACTORS
330
5E
102
}
330
5E
100
DictionaryVariables
280
     0
  1
1
  0
DICTIONARYVAR
  5
1088
102
{ACAD_REACTORS
330
5E
102
}
330
5E
100
DictionaryVariables
280
     0
  1

  0
ENDSEC
  0
EOF
