  0
SECTION
  2
HEADER
  9
$ACADVER
  1
AC1014
  9
$ACADMAINTVER
 70
     9
  9
$DWGCODEPAGE
  3
ANSI_932
  9
$INSBASE
 10
0.0
 20
0.0
 30
0.0
  9
$EXTMIN
 10
328.6750490438935
 20
406.9030771315301
 30
0.0
  9
$EXTMAX
 10
3135.488164089156
 20
8488.50281012643
 30
0.0
  9
$LIMMIN
 10
0.0
 20
0.0
  9
$LIMMAX
 10
5000.0
 20
9000.0
  9
$ORTHOMODE
 70
     0
  9
$REGENMODE
 70
     1
  9
$FILLMODE
 70
     1
  9
$QTEXTMODE
 70
     0
  9
$MIRRTEXT
 70
     0
  9
$DRAGMODE
 70
     2
  9
$LTSCALE
 40
1.0
  9
$OSMODE
 70
    47
  9
$ATTMODE
 70
     1
  9
$TEXTSIZE
 40
536.997578053626
  9
$TRACEWID
 40
1.0
  9
$TEXTSTYLE
  7
STANDARD
  9
$CLAYER
  8
STR
  9
$CELTYPE
  6
BYLAYER
  9
$CECOLOR
 62
   256
  9
$CELTSCALE
 40
1.0
  9
$DELOBJ
 70
     1
  9
$DISPSILH
 70
     0
  9
$DIMSCALE
 40
1.0
  9
$DIMASZ
 40
50.0
  9
$DIMEXO
 40
0.625
  9
$DIMDLI
 40
3.75
  9
$DIMRND
 40
0.0
  9
$DIMDLE
 40
0.0
  9
$DIMEXE
 40
1.25
  9
$DIMTP
 40
0.0
  9
$DIMTM
 40
0.0
  9
$DIMTXT
 40
60.0
  9
$DIMCEN
 40
2.5
  9
$DIMTSZ
 40
0.0
  9
$DIMTOL
 70
     0
  9
$DIMLIM
 70
     0
  9
$DIMTIH
 70
     0
  9
$DIMTOH
 70
     0
  9
$DIMSE1
 70
     0
  9
$DIMSE2
 70
     0
  9
$DIMTAD
 70
     1
  9
$DIMZIN
 70
     8
  9
$DIMBLK
  1
OPEN30
  9
$DIMASO
 70
     1
  9
$DIMSHO
 70
     1
  9
$DIMPOST
  1

  9
$DIMAPOST
  1

  9
$DIMALT
 70
     0
  9
$DIMALTD
 70
     3
  9
$DIMALTF
 40
0.03937007874016
  9
$DIMLFAC
 40
1.0
  9
$DIMTOFL
 70
     1
  9
$DIMTVP
 40
0.0
  9
$DIMTIX
 70
     0
  9
$DIMSOXD
 70
     0
  9
$DIMSAH
 70
     0
  9
$DIMBLK1
  1

  9
$DIMBLK2
  1

  9
$DIMSTYLE
  2
ISO-25-BRGK
  9
$DIMCLRD
 70
     0
  9
$DIMCLRE
 70
     0
  9
$DIMCLRT
 70
     0
  9
$DIMTFAC
 40
1.0
  9
$DIMGAP
 40
30.0
  9
$DIMJUST
 70
     0
  9
$DIMSD1
 70
     0
  9
$DIMSD2
 70
     0
  9
$DIMTOLJ
 70
     0
  9
$DIMTZIN
 70
     8
  9
$DIMALTZ
 70
     0
  9
$DIMALTTZ
 70
     0
  9
$DIMFIT
 70
     2
  9
$DIMUPT
 70
     0
  9
$DIMUNIT
 70
     2
  9
$DIMDEC
 70
     2
  9
$DIMTDEC
 70
     2
  9
$DIMALTU
 70
     2
  9
$DIMALTTD
 70
     3
  9
$DIMTXSTY
  7
STANDARD
  9
$DIMAUNIT
 70
     0
  9
$LUNITS
 70
     2
  9
$LUPREC
 70
     4
  9
$SKETCHINC
 40
1.0
  9
$FILLETRAD
 40
0.0
  9
$AUNITS
 70
     0
  9
$AUPREC
 70
     0
  9
$MENU
  1
.
  9
$ELEVATION
 40
0.0
  9
$PELEVATION
 40
0.0
  9
$THICKNESS
 40
0.0
  9
$LIMCHECK
 70
     0
  9
$BLIPMODE
 70
     0
  9
$CHAMFERA
 40
0.0
  9
$CHAMFERB
 40
0.0
  9
$CHAMFERC
 40
0.0
  9
$CHAMFERD
 40
0.0
  9
$SKPOLY
 70
     0
  9
$TDCREATE
 40
2453468.462395104
  9
$TDUPDATE
 40
2453476.592000139
  9
$TDINDWG
 40
0.5579259144
  9
$TDUSRTIMER
 40
0.5579257292
  9
$USRTIMER
 70
     1
  9
$ANGBASE
 50
0.0
  9
$ANGDIR
 70
     0
  9
$PDMODE
 70
     0
  9
$PDSIZE
 40
0.0
  9
$PLINEWID
 40
0.0
  9
$COORDS
 70
     1
  9
$SPLFRAME
 70
     0
  9
$SPLINETYPE
 70
     6
  9
$SPLINESEGS
 70
     8
  9
$ATTDIA
 70
     0
  9
$ATTREQ
 70
     1
  9
$HANDLING
 70
 22529
  9
$HANDSEED
  5
1C72
  9
$SURFTAB1
 70
     6
  9
$SURFTAB2
 70
     6
  9
$SURFTYPE
 70
     6
  9
$SURFU
 70
     6
  9
$SURFV
 70
     6
  9
$UCSNAME
  2

  9
$UCSORG
 10
0.0
 20
0.0
 30
0.0
  9
$UCSXDIR
 10
1.0
 20
0.0
 30
0.0
  9
$UCSYDIR
 10
0.0
 20
1.0
 30
0.0
  9
$PUCSNAME
  2

  9
$PUCSORG
 10
0.0
 20
0.0
 30
0.0
  9
$PUCSXDIR
 10
1.0
 20
0.0
 30
0.0
  9
$PUCSYDIR
 10
0.0
 20
1.0
 30
0.0
  9
$USERI1
 70
     0
  9
$USERI2
 70
     0
  9
$USERI3
 70
     0
  9
$USERI4
 70
     0
  9
$USERI5
 70
     0
  9
$USERR1
 40
0.0
  9
$USERR2
 40
0.0
  9
$USERR3
 40
0.0
  9
$USERR4
 40
0.0
  9
$USERR5
 40
0.0
  9
$WORLDVIEW
 70
     1
  9
$SHADEDGE
 70
     3
  9
$SHADEDIF
 70
    70
  9
$TILEMODE
 70
     1
  9
$MAXACTVP
 70
    48
  9
$PINSBASE
 10
0.0
 20
0.0
 30
0.0
  9
$PLIMCHECK
 70
     0
  9
$PEXTMIN
 10
-3.733518179870543
 20
-6.839041121875879
 30
-0.0015258207003583
  9
$PEXTMAX
 10
198.8194873838995
 20
289.8795547595686
 30
0.0000000349246037
  9
$PLIMMIN
 10
-5.873749732971191
 20
-5.916075706481933
  9
$PLIMMAX
 10
204.0995779037475
 20
291.0522470474243
  9
$UNITMODE
 70
     0
  9
$VISRETAIN
 70
     1
  9
$PLINEGEN
 70
     0
  9
$PSLTSCALE
 70
     1
  9
$TREEDEPTH
 70
  3020
  9
$PICKSTYLE
 70
     1
  9
$CMLSTYLE
  2
STANDARD
  9
$CMLJUST
 70
     0
  9
$CMLSCALE
 40
20.0
  9
$PROXYGRAPHICS
 70
     1
  9
$MEASUREMENT
 70
     1
  0
ENDSEC
  0
SECTION
  2
CLASSES
  0
CLASS
  1
ACDBDICTIONARYWDFLT
  2
AcDbDictionaryWithDefault
  3
AutoCAD 2000
 90
        0
280
     0
281
     0
  0
CLASS
  1
ACDBPLACEHOLDER
  2
AcDbPlaceHolder
  3
AutoCAD 2000
 90
        0
280
     0
281
     0
  0
CLASS
  1
LAYOUT
  2
AcDbLayout
  3
AutoCAD 2000
 90
        0
280
     0
281
     0
  0
CLASS
  1
DICTIONARYVAR
  2
AcDbDictionaryVar
  3
AutoCAD 2000
 90
        0
280
     0
281
     0
  0
CLASS
  1
DIMASSOC
  2
AcDbDimAssoc
  3
"AcDbDimAssoc|Product Desc:     AcDim ARX App For Dimension|Company:          Autodesk, Inc.|WEB Address:      www.autodesk.com"
 90
        0
280
     0
281
     0
  0
CLASS
  1
SORTENTSTABLE
  2
AcDbSortentsTable
  3
AutoCAD 2000
 90
        0
280
     0
281
     0
  0
CLASS
  1
LONG_TRANSACTION
  2
AcDbLongTransaction
  3
AutoCAD 2000
 90
        0
280
     0
281
     0
  0
CLASS
  1
LWPOLYLINE
  2
AcDbPolyline
  3
AutoCAD 2000
 90
        0
280
     0
281
     1
  0
CLASS
  1
HATCH
  2
AcDbHatch
  3
AutoCAD 2000
 90
        0
280
     0
281
     1
  0
CLASS
  1
XRECORD
  2
AcDbXrecord
  3
AutoCAD 2000
 90
        0
280
     0
281
     0
  0
CLASS
  1
LONG_TRANSACTION
  2
AcDbLongTransaction
  3
AutoCAD 2000
 90
        0
280
     0
281
     0
  0
CLASS
  1
LWPOLYLINE
  2
AcDbPolyline
  3
AutoCAD 2000
 90
        0
280
     0
281
     1
  0
CLASS
  1
HATCH
  2
AcDbHatch
  3
AutoCAD 2000
 90
        0
280
     0
281
     1
  0
CLASS
  1
XRECORD
  2
AcDbXrecord
  3
AutoCAD 2000
 90
        0
280
     0
281
     0
  0
ENDSEC
  0
SECTION
  2
TABLES
  0
TABLE
  2
VPORT
  5
8
330
0
100
AcDbSymbolTable
 70
     2
  0
VPORT
  5
1C4E
330
8
100
AcDbSymbolTableRecord
100
AcDbViewportTableRecord
  2
*ACTIVE
 70
     0
 10
0.0
 20
0.0
 11
1.0
 21
1.0
 12
2499.999999999999
 22
4505.942230019173
 13
0.0
 23
0.0
 14
10.0
 24
10.0
 15
10.0
 25
10.0
 16
0.0
 26
0.0
 36
1.0
 17
0.0
 27
0.0
 37
0.0
 40
9072.244660846912
 41
1.580912863070539
 42
50.0
 43
0.0
 44
0.0
 50
0.0
 51
0.0
 71
     0
 72
  1000
 73
     1
 74
     3
 75
     0
 76
     0
 77
     0
 78
     0
  0
ENDTAB
  0
TABLE
  2
LTYPE
  5
5
330
0
100
AcDbSymbolTable
 70
     2
  0
LTYPE
  5
14
330
5
100
AcDbSymbolTableRecord
100
AcDbLinetypeTableRecord
  2
BYBLOCK
 70
     0
  3

 72
    65
 73
     0
 40
0.0
  0
LTYPE
  5
15
330
5
100
AcDbSymbolTableRecord
100
AcDbLinetypeTableRecord
  2
BYLAYER
 70
     0
  3

 72
    65
 73
     0
 40
0.0
  0
LTYPE
  5
16
330
5
100
AcDbSymbolTableRecord
100
AcDbLinetypeTableRecord
  2
CONTINUOUS
 70
     0
  3
Solid line
 72
    65
 73
     0
 40
0.0
  0
LTYPE
  5
8D
330
5
100
AcDbSymbolTableRecord
100
AcDbLinetypeTableRecord
  2
CENTER
 70
     0
  3
Center ____ _ ____ _ ____ _ ____ _ ____ _ ____
 72
    65
 73
     4
 40
50.8
 49
31.75
 74
     0
 49
-6.349999999999999
 74
     0
 49
6.349999999999999
 74
     0
 49
-6.349999999999999
 74
     0
  0
ENDTAB
  0
TABLE
  2
LAYER
  5
2
330
0
100
AcDbSymbolTable
 70
     4
  0
LAYER
  5
10
330
2
100
AcDbSymbolTableRecord
100
AcDbLayerTableRecord
  2
0
 70
     0
 62
     7
  6
CONTINUOUS
  0
LAYER
  5
8A
330
2
100
AcDbSymbolTableRecord
100
AcDbLayerTableRecord
  2
BMK
 70
     0
 62
     1
  6
CENTER
  0
LAYER
  5
8E
330
2
100
AcDbSymbolTableRecord
100
AcDbLayerTableRecord
  2
DEFPOINTS
 70
     0
 62
     7
  6
CONTINUOUS
  0
LAYER
  5
8F
330
2
100
AcDbSymbolTableRecord
100
AcDbLayerTableRecord
  2
STR
 70
     0
 62
     7
  6
CONTINUOUS
  0
ENDTAB
  0
TABLE
  2
STYLE
  5
3
330
0
100
AcDbSymbolTable
 70
     1
  0
STYLE
  5
11
330
3
100
AcDbSymbolTableRecord
100
AcDbTextStyleTableRecord
  2
STANDARD
 70
     0
 40
0.0
 41
1.0
 50
0.0
 71
     0
 42
536.997578053626
  3
txt.shx
  4
bigfont.shx
  0
ENDTAB
  0
TABLE
  2
VIEW
  5
6
330
0
100
AcDbSymbolTable
 70
     0
  0
ENDTAB
  0
TABLE
  2
UCS
  5
7
330
0
100
AcDbSymbolTable
 70
     0
  0
ENDTAB
  0
TABLE
  2
APPID
  5
9
330
0
100
AcDbSymbolTable
 70
     1
  0
APPID
  5
12
330
9
100
AcDbSymbolTableRecord
100
AcDbRegAppTableRecord
  2
ACAD
 70
     0
  0
ENDTAB
  0
TABLE
  2
DIMSTYLE
  5
A
330
0
100
AcDbSymbolTable
 70
     1
  0
DIMSTYLE
105
103
330
A
100
AcDbSymbolTableRecord
100
AcDbDimStyleTableRecord
  2
ISO-25-BRGK
 70
     0
  3

  4

  5
OPEN30
  6

  7

 40
1.0
 41
50.0
 42
0.625
 43
3.75
 44
1.25
 45
0.0
 46
0.0
 47
0.0
 48
0.0
140
60.0
141
2.5
142
0.0
143
0.03937007874016
144
1.0
145
0.0
146
1.0
147
30.0
 71
     0
 72
     0
 73
     0
 74
     0
 75
     0
 76
     0
 77
     1
 78
     8
170
     0
171
     3
172
     1
173
     0
174
     0
175
     0
176
     0
177
     0
178
     0
270
     2
271
     2
272
     2
273
     2
274
     3
340
11
275
     0
280
     0
281
     0
282
     0
283
     0
284
     8
285
     0
286
     0
287
     2
288
     0
  0
ENDTAB
  0
TABLE
  2
BLOCK_RECORD
  5
1
330
0
100
AcDbSymbolTable
 70
     8
  0
BLOCK_RECORD
  5
1F
102
{ACAD_XDICTIONARY
360
1BBF
102
}
330
1
100
AcDbSymbolTableRecord
100
AcDbBlockTableRecord
  2
*MODEL_SPACE
  0
BLOCK_RECORD
  5
1B55
102
{ACAD_XDICTIONARY
360
1BC1
102
}
330
1
100
AcDbSymbolTableRecord
100
AcDbBlockTableRecord
  2
*PAPER_SPACE
  0
BLOCK_RECORD
  5
FA
330
1
100
AcDbSymbolTableRecord
100
AcDbBlockTableRecord
  2
_OPEN30
  0
BLOCK_RECORD
  5
100
330
1
100
AcDbSymbolTableRecord
100
AcDbBlockTableRecord
  2
_NONE
  0
BLOCK_RECORD
  5
198B
330
1
100
AcDbSymbolTableRecord
100
AcDbBlockTableRecord
  2
*D2
  0
BLOCK_RECORD
  5
19A3
330
1
100
AcDbSymbolTableRecord
100
AcDbBlockTableRecord
  2
*D3
  0
BLOCK_RECORD
  5
1A2F
330
1
100
AcDbSymbolTableRecord
100
AcDbBlockTableRecord
  2
*D4
  0
BLOCK_RECORD
  5
1A5F
330
1
100
AcDbSymbolTableRecord
100
AcDbBlockTableRecord
  2
*D5
  0
BLOCK_RECORD
  5
1A77
330
1
100
AcDbSymbolTableRecord
100
AcDbBlockTableRecord
  2
*D6
  0
BLOCK_RECORD
  5
1B2F
330
1
100
AcDbSymbolTableRecord
100
AcDbBlockTableRecord
  2
*D7
  0
ENDTAB
  0
ENDSEC
  0
SECTION
  2
BLOCKS
  0
BLOCK
  5
20
330
1F
100
AcDbEntity
  8
0
100
AcDbBlockBegin
  2
*MODEL_SPACE
 70
     0
 10
0.0
 20
0.0
 30
0.0
  3
*MODEL_SPACE
  1

  0
ENDBLK
  5
21
330
1F
100
AcDbEntity
  8
0
100
AcDbBlockEnd
  0
BLOCK
  5
1B57
330
1B55
100
AcDbEntity
 67
     1
  8
0
100
AcDbBlockBegin
  2
*PAPER_SPACE
 70
     0
 10
0.0
 20
0.0
 30
0.0
  3
*PAPER_SPACE
  1

  0
ENDBLK
  5
1B58
330
1B55
100
AcDbEntity
 67
     1
  8
0
100
AcDbBlockEnd
  0
BLOCK
  5
FB
330
FA
100
AcDbEntity
  8
0
100
AcDbBlockBegin
  2
_OPEN30
 70
     0
 10
0.0
 20
0.0
 30
0.0
  3
_OPEN30
  1

  0
LINE
  5
FC
330
FA
100
AcDbEntity
  8
0
  6
BYBLOCK
 62
     0
100
AcDbLine
 10
-1.0
 20
0.26794919
 30
0.0
 11
0.0
 21
0.0
 31
0.0
  0
LINE
  5
FD
330
FA
100
AcDbEntity
  8
0
  6
BYBLOCK
 62
     0
100
AcDbLine
 10
0.0
 20
0.0
 30
0.0
 11
-1.0
 21
-0.26794919
 31
0.0
  0
LINE
  5
FE
330
FA
100
AcDbEntity
  8
0
  6
BYBLOCK
 62
     0
100
AcDbLine
 10
0.0
 20
0.0
 30
0.0
 11
-1.0
 21
0.0
 31
0.0
  0
ENDBLK
  5
FF
330
FA
100
AcDbEntity
  8
0
100
AcDbBlockEnd
  0
BLOCK
  5
101
330
100
100
AcDbEntity
  8
0
100
AcDbBlockBegin
  2
_NONE
 70
     0
 10
0.0
 20
0.0
 30
0.0
  3
_NONE
  1

  0
ENDBLK
  5
102
330
100
100
AcDbEntity
  8
0
100
AcDbBlockEnd
  0
BLOCK
  5
1995
330
198B
100
AcDbEntity
  8
0
100
AcDbBlockBegin
  2
*D2
 70
     1
 10
0.0
 20
0.0
 30
0.0
  3
*D2
  1

  0
LINE
  5
1A05
330
198B
100
AcDbEntity
  8
STR
 62
     0
100
AcDbLine
 10
2743.835845240063
 20
5122.270377235853
 30
0.0
 11
2994.460845240064
 21
5122.270377235853
 31
0.0
  0
LINE
  5
1A06
330
198B
100
AcDbEntity
  8
STR
 62
     0
100
AcDbLine
 10
2744.460845240063
 20
7122.270377235854
 30
0.0
 11
2994.460845240064
 21
7122.270377235854
 31
0.0
  0
LINE
  5
1A07
330
198B
100
AcDbEntity
  8
STR
 62
     0
100
AcDbLine
 10
2993.210845240064
 20
5172.270377235854
 30
0.0
 11
2993.210845240064
 21
7072.270377235854
 31
0.0
  0
INSERT
  5
1A08
330
198B
100
AcDbEntity
  8
STR
 62
     0
100
AcDbBlockReference
  2
_OPEN30
 10
2993.210845240064
 20
5122.270377235853
 30
0.0
 41
50.0
 42
50.0
 43
50.0
 50
270.0
  0
INSERT
  5
1A09
330
198B
100
AcDbEntity
  8
STR
 62
     0
100
AcDbBlockReference
  2
_OPEN30
 10
2993.210845240064
 20
7122.270377235854
 30
0.0
 41
50.0
 42
50.0
 43
50.0
 50
90.0
  0
MTEXT
  5
1A0A
330
198B
100
AcDbEntity
  8
STR
 62
     0
100
AcDbMText
 10
2933.210845240063
 20
6122.270377235855
 30
0.0
 40
60.0
 41
0.0
 71
     5
 72
     1
  1
2000
 11
0.0000000000000001
 21
1.0
 31
0.0
1001
ACAD
1000
MTEXTBEGIN
1070
    73
1070
     1
1070
    44
1040
1.0
1070
    74
1070
     0
1000
MTEXTEND
  0
POINT
  5
1A0B
330
198B
100
AcDbEntity
  8
DEFPOINTS
 62
     0
100
AcDbPoint
 10
2743.210845240063
 20
5122.270377235853
 30
0.0
  0
POINT
  5
1A0C
330
198B
100
AcDbEntity
  8
DEFPOINTS
 62
     0
100
AcDbPoint
 10
2743.835845240063
 20
7122.270377235854
 30
0.0
  0
POINT
  5
1A0D
330
198B
100
AcDbEntity
  8
DEFPOINTS
 62
     0
100
AcDbPoint
 10
2993.210845240064
 20
7122.270377235854
 30
0.0
  0
ENDBLK
  5
1996
330
198B
100
AcDbEntity
  8
0
100
AcDbBlockEnd
  0
BLOCK
  5
19AD
330
19A3
100
AcDbEntity
  8
0
100
AcDbBlockBegin
  2
*D3
 70
     1
 10
0.0
 20
0.0
 30
0.0
  3
*D3
  1

  0
LINE
  5
1A0E
330
19A3
100
AcDbEntity
  8
STR
 62
     0
100
AcDbLine
 10
413.2108452400639
 20
5091.645377235853
 30
0.0
 11
413.2108452400639
 21
4841.020377235853
 31
0.0
  0
LINE
  5
1A0F
330
19A3
100
AcDbEntity
  8
STR
 62
     0
100
AcDbLine
 10
2713.210845240063
 20
5091.645377235853
 30
0.0
 11
2713.210845240063
 21
4841.020377235853
 31
0.0
  0
LINE
  5
1A10
330
19A3
100
AcDbEntity
  8
STR
 62
     0
100
AcDbLine
 10
463.2108452400639
 20
4842.270377235854
 30
0.0
 11
2663.210845240064
 21
4842.270377235854
 31
0.0
  0
INSERT
  5
1A11
330
19A3
100
AcDbEntity
  8
STR
 62
     0
100
AcDbBlockReference
  2
_OPEN30
 10
413.2108452400639
 20
4842.270377235854
 30
0.0
 41
50.0
 42
50.0
 43
50.0
 50
180.0
  0
INSERT
  5
1A12
330
19A3
100
AcDbEntity
  8
STR
 62
     0
100
AcDbBlockReference
  2
_OPEN30
 10
2713.210845240063
 20
4842.270377235854
 30
0.0
 41
50.0
 42
50.0
 43
50.0
  0
MTEXT
  5
1A13
330
19A3
100
AcDbEntity
  8
STR
 62
     0
100
AcDbMText
 10
1563.210845240063
 20
4902.270377235854
 30
0.0
 40
60.0
 41
0.0
 71
     5
 72
     1
  1
2300
1001
ACAD
1000
MTEXTBEGIN
1070
    73
1070
     1
1070
    44
1040
1.0
1070
    74
1070
     0
1000
MTEXTEND
  0
POINT
  5
1A14
330
19A3
100
AcDbEntity
  8
DEFPOINTS
 62
     0
100
AcDbPoint
 10
413.2108452400639
 20
5092.270377235854
 30
0.0
  0
POINT
  5
1A15
330
19A3
100
AcDbEntity
  8
DEFPOINTS
 62
     0
100
AcDbPoint
 10
2713.210845240063
 20
5092.270377235854
 30
0.0
  0
POINT
  5
1A16
330
19A3
100
AcDbEntity
  8
DEFPOINTS
 62
     0
100
AcDbPoint
 10
2713.210845240063
 20
4842.270377235854
 30
0.0
  0
ENDBLK
  5
19AE
330
19A3
100
AcDbEntity
  8
0
100
AcDbBlockEnd
  0
BLOCK
  5
1A39
330
1A2F
100
AcDbEntity
  8
0
100
AcDbBlockBegin
  2
*D4
 70
     1
 10
0.0
 20
0.0
 30
0.0
  3
*D4
  1

  0
LINE
  5
1A56
330
1A2F
100
AcDbEntity
  8
STR
 62
     0
100
AcDbLine
 10
1633.210845240063
 20
1980.02807713153
 30
0.0
 11
1633.210845240063
 21
1979.40307713153
 31
0.0
  0
LINE
  5
1A57
330
1A2F
100
AcDbEntity
  8
STR
 62
     0
100
AcDbLine
 10
733.2108452400638
 20
1981.278077131529
 30
0.0
 11
733.2108452400638
 21
1981.903077131529
 31
0.0
  0
LINE
  5
1A58
330
1A2F
100
AcDbEntity
  8
STR
 62
     0
100
AcDbLine
 10
1583.210845240063
 20
1980.653077131529
 30
0.0
 11
783.2108452400638
 21
1980.653077131529
 31
0.0
  0
INSERT
  5
1A59
330
1A2F
100
AcDbEntity
  8
STR
 62
     0
100
AcDbBlockReference
  2
_OPEN30
 10
1633.210845240063
 20
1980.653077131529
 30
0.0
 41
50.0
 42
50.0
 43
50.0
  0
INSERT
  5
1A5A
330
1A2F
100
AcDbEntity
  8
STR
 62
     0
100
AcDbBlockReference
  2
_OPEN30
 10
733.2108452400638
 20
1980.653077131529
 30
0.0
 41
50.0
 42
50.0
 43
50.0
 50
180.0
  0
POINT
  5
1A5B
330
1A2F
100
AcDbEntity
  8
DEFPOINTS
 62
     0
100
AcDbPoint
 10
1633.210845240063
 20
1980.653077131529
 30
0.0
  0
POINT
  5
1A5C
330
1A2F
100
AcDbEntity
  8
DEFPOINTS
 62
     0
100
AcDbPoint
 10
733.2108452400638
 20
1980.653077131529
 30
0.0
  0
POINT
  5
1A5D
330
1A2F
100
AcDbEntity
  8
DEFPOINTS
 62
     0
100
AcDbPoint
 10
733.2108452400638
 20
1980.653077131529
 30
0.0
  0
ENDBLK
  5
1A3A
330
1A2F
100
AcDbEntity
  8
0
100
AcDbBlockEnd
  0
BLOCK
  5
1A69
330
1A5F
100
AcDbEntity
  8
0
100
AcDbBlockBegin
  2
*D5
 70
     1
 10
0.0
 20
0.0
 30
0.0
  3
*D5
  1

  0
LINE
  5
1AF2
330
1A5F
100
AcDbEntity
  8
STR
 62
     0
100
AcDbLine
 10
2653.835845240063
 20
1266.90307713153
 30
0.0
 11
2928.183636369167
 21
1266.90307713153
 31
0.0
  0
LINE
  5
1AF3
330
1A5F
100
AcDbEntity
  8
STR
 62
     0
100
AcDbLine
 10
2654.460845240063
 20
3466.903077131529
 30
0.0
 11
2928.183636369168
 21
3466.903077131529
 31
0.0
  0
LINE
  5
1AF4
330
1A5F
100
AcDbEntity
  8
STR
 62
     0
100
AcDbLine
 10
2926.933636369168
 20
1316.90307713153
 30
0.0
 11
2926.933636369168
 21
3416.90307713153
 31
0.0
  0
INSERT
  5
1AF5
330
1A5F
100
AcDbEntity
  8
STR
 62
     0
100
AcDbBlockReference
  2
_OPEN30
 10
2926.933636369168
 20
1266.90307713153
 30
0.0
 41
50.0
 42
50.0
 43
50.0
 50
270.0
  0
INSERT
  5
1AF6
330
1A5F
100
AcDbEntity
  8
STR
 62
     0
100
AcDbBlockReference
  2
_OPEN30
 10
2926.933636369168
 20
3466.903077131529
 30
0.0
 41
50.0
 42
50.0
 43
50.0
 50
90.0
  0
MTEXT
  5
1AF7
330
1A5F
100
AcDbEntity
  8
STR
 62
     0
100
AcDbMText
 10
2866.933636369167
 20
2366.90307713153
 30
0.0
 40
60.0
 41
0.0
 71
     5
 72
     1
  1
2200
 11
0.0000000000000001
 21
1.0
 31
0.0
1001
ACAD
1000
MTEXTBEGIN
1070
    73
1070
     1
1070
    44
1040
1.0
1070
    74
1070
     0
1000
MTEXTEND
  0
POINT
  5
1AF8
330
1A5F
100
AcDbEntity
  8
DEFPOINTS
 62
     0
100
AcDbPoint
 10
2653.210845240063
 20
1266.90307713153
 30
0.0
  0
POINT
  5
1AF9
330
1A5F
100
AcDbEntity
  8
DEFPOINTS
 62
     0
100
AcDbPoint
 10
2653.835845240063
 20
3466.903077131529
 30
0.0
  0
POINT
  5
1AFA
330
1A5F
100
AcDbEntity
  8
DEFPOINTS
 62
     0
100
AcDbPoint
 10
2926.933636369168
 20
3466.903077131529
 30
0.0
  0
ENDBLK
  5
1A6A
330
1A5F
100
AcDbEntity
  8
0
100
AcDbBlockEnd
  0
BLOCK
  5
1A81
330
1A77
100
AcDbEntity
  8
0
100
AcDbBlockBegin
  2
*D6
 70
     1
 10
0.0
 20
0.0
 30
0.0
  3
*D6
  1

  0
LINE
  5
1B0E
330
1A77
100
AcDbEntity
  8
STR
 62
     0
100
AcDbLine
 10
2653.835845240063
 20
1266.90307713153
 30
0.0
 11
3088.404502509125
 21
1266.90307713153
 31
0.0
  0
LINE
  5
1B0F
330
1A77
100
AcDbEntity
  8
STR
 62
     0
100
AcDbLine
 10
2201.745173874595
 20
3966.903077131529
 30
0.0
 11
3088.404502509126
 21
3966.903077131529
 31
0.0
  0
LINE
  5
1B10
330
1A77
100
AcDbEntity
  8
STR
 62
     0
100
AcDbLine
 10
3087.154502509125
 20
1316.90307713153
 30
0.0
 11
3087.154502509125
 21
3916.90307713153
 31
0.0
  0
INSERT
  5
1B11
330
1A77
100
AcDbEntity
  8
STR
 62
     0
100
AcDbBlockReference
  2
_OPEN30
 10
3087.154502509125
 20
1266.90307713153
 30
0.0
 41
50.0
 42
50.0
 43
50.0
 50
270.0
  0
INSERT
  5
1B12
330
1A77
100
AcDbEntity
  8
STR
 62
     0
100
AcDbBlockReference
  2
_OPEN30
 10
3087.154502509125
 20
3966.903077131529
 30
0.0
 41
50.0
 42
50.0
 43
50.0
 50
90.0
  0
MTEXT
  5
1B13
330
1A77
100
AcDbEntity
  8
STR
 62
     0
100
AcDbMText
 10
3027.154502509125
 20
2459.124975592938
 30
0.0
 40
60.0
 41
0.0
 71
     5
 72
     1
  1
MAX2700
 11
0.0000000000000001
 21
1.0
 31
0.0
1001
ACAD
1000
MTEXTBEGIN
1070
    73
1070
     1
1070
    44
1040
1.0
1070
    74
1070
     0
1000
MTEXTEND
  0
POINT
  5
1B14
330
1A77
100
AcDbEntity
  8
DEFPOINTS
 62
     0
100
AcDbPoint
 10
2653.210845240063
 20
1266.90307713153
 30
0.0
  0
POINT
  5
1B15
330
1A77
100
AcDbEntity
  8
DEFPOINTS
 62
     0
100
AcDbPoint
 10
2201.120173874595
 20
3966.903077131529
 30
0.0
  0
POINT
  5
1B16
330
1A77
100
AcDbEntity
  8
DEFPOINTS
 62
     0
100
AcDbPoint
 10
3087.154502509125
 20
3966.903077131529
 30
0.0
  0
ENDBLK
  5
1A82
330
1A77
100
AcDbEntity
  8
0
100
AcDbBlockEnd
  0
BLOCK
  5
1B39
330
1B2F
100
AcDbEntity
  8
0
100
AcDbBlockBegin
  2
*D7
 70
     1
 10
0.0
 20
0.0
 30
0.0
  3
*D7
  1

  0
LINE
  5
1B3C
330
1B2F
100
AcDbEntity
  8
STR
 62
     0
100
AcDbLine
 10
1183.210845240063
 20
2387.210919042434
 30
0.0
 11
1183.210845240063
 21
2387.835919042434
 31
0.0
  0
LINE
  5
1B3D
330
1B2F
100
AcDbEntity
  8
STR
 62
     0
100
AcDbLine
 10
1933.210845240063
 20
2387.210919042434
 30
0.0
 11
1933.210845240063
 21
2387.835919042434
 31
0.0
  0
LINE
  5
1B3E
330
1B2F
100
AcDbEntity
  8
STR
 62
     0
100
AcDbLine
 10
1233.210845240063
 20
2386.585919042434
 30
0.0
 11
1883.210845240063
 21
2386.585919042434
 31
0.0
  0
INSERT
  5
1B3F
330
1B2F
100
AcDbEntity
  8
STR
 62
     0
100
AcDbBlockReference
  2
_OPEN30
 10
1183.210845240063
 20
2386.585919042434
 30
0.0
 41
50.0
 42
50.0
 43
50.0
 50
180.0
  0
INSERT
  5
1B40
330
1B2F
100
AcDbEntity
  8
STR
 62
     0
100
AcDbBlockReference
  2
_OPEN30
 10
1933.210845240063
 20
2386.585919042434
 30
0.0
 41
50.0
 42
50.0
 43
50.0
  0
MTEXT
  5
1B41
330
1B2F
100
AcDbEntity
  8
STR
 62
     0
100
AcDbMText
 10
1558.210845240063
 20
2446.585919042434
 30
0.0
 40
60.0
 41
0.0
 71
     5
 72
     1
  1
750
1001
ACAD
1000
MTEXTBEGIN
1070
    73
1070
     1
1070
    44
1040
1.0
1070
    74
1070
     0
1000
MTEXTEND
  0
POINT
  5
1B42
330
1B2F
100
AcDbEntity
  8
DEFPOINTS
 62
     0
100
AcDbPoint
 10
1183.210845240063
 20
2386.585919042434
 30
0.0
  0
POINT
  5
1B43
330
1B2F
100
AcDbEntity
  8
DEFPOINTS
 62
     0
100
AcDbPoint
 10
1933.210845240063
 20
2386.585919042434
 30
0.0
  0
POINT
  5
1B44
330
1B2F
100
AcDbEntity
  8
DEFPOINTS
 62
     0
100
AcDbPoint
 10
1933.210845240063
 20
2386.585919042434
 30
0.0
  0
ENDBLK
  5
1B3A
330
1B2F
100
AcDbEntity
  8
0
100
AcDbBlockEnd
  0
ENDSEC
  0
SECTION
  2
ENTITIES
  0
TEXT
  5
4DB
330
1F
100
AcDbEntity
  8
STR
100
AcDbText
 10
338.6526319746694
 20
8173.607409627514
 30
0.0
 40
60.0
  1
3-3c 機械，削進台の寸法図（c）
100
AcDbText
  0
TEXT
  5
1634
330
1F
100
AcDbEntity
  8
STR
100
AcDbText
 10
609.1424850589824
 20
7816.34690179327
 30
0.0
 40
60.0
  1
ベビーモールKYT-5030削進台据付図
100
AcDbText
  0
LINE
  5
16DA
330
1F
100
AcDbEntity
  8
STR
100
AcDbLine
 10
1923.210845240063
 20
3906.90307713153
 30
0.0
 11
1933.210845240063
 21
3896.90307713153
 31
0.0
  0
LINE
  5
16DB
330
1F
100
AcDbEntity
  8
STR
100
AcDbLine
 10
1713.210845240064
 20
3906.90307713153
 30
0.0
 11
1703.210845240064
 21
3896.90307713153
 31
0.0
  0
LINE
  5
16DF
330
1F
100
AcDbEntity
  8
STR
100
AcDbLine
 10
1933.210845240063
 20
3876.90307713153
 30
0.0
 11
1703.210845240064
 21
3876.90307713153
 31
0.0
  0
LINE
  5
16E3
330
1F
100
AcDbEntity
  8
STR
100
AcDbLine
 10
663.2108452400639
 20
3321.903077131543
 30
0.0
 11
538.2108452400652
 21
3321.903077131536
 31
0.0
  0
LINE
  5
16E4
330
1F
100
AcDbEntity
  8
STR
100
AcDbLine
 10
663.2108452400639
 20
3501.903077131542
 30
0.0
 11
538.2108452400525
 21
3501.903077131535
 31
0.0
  0
LINE
  5
16E5
330
1F
100
AcDbEntity
  8
STR
100
AcDbLine
 10
538.210845240063
 20
3351.903077131535
 30
0.0
 11
498.2108452400634
 21
3351.903077131533
 31
0.0
  0
LINE
  5
16E6
330
1F
100
AcDbEntity
  8
STR
100
AcDbLine
 10
538.210845240063
 20
3471.903077131535
 30
0.0
 11
498.2108452400535
 21
3471.903077131533
 31
0.0
  0
CIRCLE
  5
16E7
330
1F
100
AcDbEntity
  8
STR
100
AcDbCircle
 10
443.2108452400634
 20
3411.903077131531
 30
0.0
 40
10.0
  0
LINE
  5
16E8
330
1F
100
AcDbEntity
  8
STR
100
AcDbLine
 10
498.2108452400634
 20
3411.903077131533
 30
0.0
 11
453.2108452400634
 21
3411.90307713153
 31
0.0
  0
LINE
  5
16E9
330
1F
100
AcDbEntity
  8
STR
100
AcDbLine
 10
498.2108452400634
 20
3471.903077131533
 30
0.0
 11
498.2108452400634
 21
3351.903077131533
 31
0.0
  0
LINE
  5
16EA
330
1F
100
AcDbEntity
  8
STR
100
AcDbLine
 10
538.2108452400634
 20
3501.903077131535
 30
0.0
 11
538.210845240063
 21
3321.903077131535
 31
0.0
  0
LINE
  5
16EB
330
1F
100
AcDbEntity
  8
STR
100
AcDbLine
 10
623.2108452400644
 20
3501.90307713154
 30
0.0
 11
623.2108452400644
 21
3321.90307713154
 31
0.0
  0
LINE
  5
16EF
330
1F
100
AcDbEntity
  8
STR
100
AcDbLine
 10
1383.210845240063
 20
3536.903077131529
 30
0.0
 11
1383.210845240063
 21
3826.90307713153
 31
0.0
  0
LINE
  5
16F0
330
1F
100
AcDbEntity
  8
STR
100
AcDbLine
 10
1383.210845240063
 20
3286.90307713153
 30
0.0
 11
1383.210845240063
 21
3206.90307713153
 31
0.0
  0
LINE
  5
16F1
330
1F
100
AcDbEntity
  8
STR
100
AcDbLine
 10
983.2108452400639
 20
3286.903077131531
 30
0.0
 11
983.2108452400639
 21
3206.90307713153
 31
0.0
  0
LINE
  5
16F2
330
1F
100
AcDbEntity
  8
STR
100
AcDbLine
 10
663.2108452400639
 20
3536.90307713153
 30
0.0
 11
663.2108452400639
 21
3286.90307713153
 31
0.0
  0
LINE
  5
16F4
330
1F
100
AcDbEntity
  8
STR
100
AcDbLine
 10
763.2108452400639
 20
3536.903077131529
 30
0.0
 11
763.2108452400639
 21
3826.90307713153
 31
0.0
  0
LINE
  5
16F5
330
1F
100
AcDbEntity
  8
STR
100
AcDbLine
 10
983.2108452400639
 20
3536.90307713153
 30
0.0
 11
983.2108452400639
 21
3826.90307713153
 31
0.0
  0
LINE
  5
16F6
330
1F
100
AcDbEntity
  8
STR
100
AcDbLine
 10
983.2108452400639
 20
3826.903077131531
 30
0.0
 11
763.2108452400639
 21
3826.90307713153
 31
0.0
  0
LINE
  5
16F8
330
1F
100
AcDbEntity
  8
STR
100
AcDbLine
 10
1333.210845240063
 20
3606.90307713153
 30
0.0
 11
1333.210845240063
 21
3636.90307713153
 31
0.0
  0
LINE
  5
16F9
330
1F
100
AcDbEntity
  8
STR
100
AcDbLine
 10
1033.210845240063
 20
3606.90307713153
 30
0.0
 11
1033.210845240063
 21
3636.903077131531
 31
0.0
  0
LINE
  5
16FA
330
1F
100
AcDbEntity
  8
STR
100
AcDbLine
 10
1333.210845240063
 20
3636.90307713153
 30
0.0
 11
1033.210845240063
 21
3636.903077131531
 31
0.0
  0
LINE
  5
16FB
330
1F
100
AcDbEntity
  8
STR
100
AcDbLine
 10
1383.210845240063
 20
3606.90307713153
 30
0.0
 11
983.2108452400639
 21
3606.90307713153
 31
0.0
  0
LINE
  5
16FC
330
1F
100
AcDbEntity
  8
STR
100
AcDbLine
 10
1383.210845240063
 20
3826.90307713153
 30
0.0
 11
1603.210845240063
 21
3826.90307713153
 31
0.0
  0
LINE
  5
16FD
330
1F
100
AcDbEntity
  8
STR
100
AcDbLine
 10
1603.210845240063
 20
3536.90307713153
 30
0.0
 11
1603.210845240063
 21
3826.90307713153
 31
0.0
  0
LINE
  5
16FE
330
1F
100
AcDbEntity
  8
STR
100
AcDbLine
 10
1603.210845240063
 20
3536.90307713153
 30
0.0
 11
663.2108452400639
 21
3536.90307713153
 31
0.0
  0
LINE
  5
16FF
330
1F
100
AcDbEntity
  8
STR
100
AcDbLine
 10
1603.210845240063
 20
3286.90307713153
 30
0.0
 11
663.2108452400639
 21
3286.90307713153
 31
0.0
  0
LINE
  5
1700
330
1F
100
AcDbEntity
  8
STR
100
AcDbLine
 10
1333.210845240063
 20
3166.90307713153
 30
0.0
 11
1333.210845240063
 21
3106.90307713153
 31
0.0
  0
LINE
  5
1701
330
1F
100
AcDbEntity
  8
STR
100
AcDbLine
 10
1033.210845240063
 20
3166.90307713153
 30
0.0
 11
1033.210845240063
 21
3106.90307713153
 31
0.0
  0
LINE
  5
1702
330
1F
100
AcDbEntity
  8
STR
100
AcDbLine
 10
1433.210845240063
 20
3106.90307713153
 30
0.0
 11
1433.210845240063
 21
3056.90307713153
 31
0.0
  0
LINE
  5
1703
330
1F
100
AcDbEntity
  8
STR
100
AcDbLine
 10
933.2108452400634
 20
3106.90307713153
 30
0.0
 11
933.2108452400634
 21
3056.903077131531
 31
0.0
  0
LINE
  5
1704
330
1F
100
AcDbEntity
  8
STR
100
AcDbLine
 10
1333.210845240063
 20
3166.90307713153
 30
0.0
 11
1033.210845240063
 21
3166.90307713153
 31
0.0
  0
LINE
  5
1705
330
1F
100
AcDbEntity
  8
STR
100
AcDbLine
 10
1603.210845240063
 20
3536.90307713153
 30
0.0
 11
1603.210845240063
 21
3286.90307713153
 31
0.0
  0
LINE
  5
1708
330
1F
100
AcDbEntity
  8
STR
100
AcDbLine
 10
1633.210845240063
 20
3056.903077131529
 30
0.0
 11
733.2108452400639
 21
3056.903077131531
 31
0.0
  0
LINE
  5
1709
330
1F
100
AcDbEntity
  8
STR
100
AcDbLine
 10
1773.210845240063
 20
3666.90307713153
 30
0.0
 11
1653.210845240064
 21
3666.90307713153
 31
0.0
  0
LINE
  5
170A
330
1F
100
AcDbEntity
  8
STR
100
AcDbLine
 10
1773.210845240064
 20
3666.90307713153
 30
0.0
 11
1773.210845240063
 21
3206.90307713153
 31
0.0
  0
LINE
  5
170D
330
1F
100
AcDbEntity
  8
STR
100
AcDbLine
 10
1653.210845240064
 20
3666.90307713153
 30
0.0
 11
1653.210845240063
 21
3206.90307713153
 31
0.0
  0
LINE
  5
170E
330
1F
100
AcDbEntity
  8
STR
100
AcDbLine
 10
1933.210845240063
 20
1546.903077131529
 30
0.0
 11
1703.210845240063
 21
1546.903077131529
 31
0.0
  0
LINE
  5
1712
330
1F
100
AcDbEntity
  8
STR
100
AcDbLine
 10
1283.210845240064
 20
3206.90307713153
 30
0.0
 11
1283.210845240063
 21
3166.90307713153
 31
0.0
  0
LINE
  5
1713
330
1F
100
AcDbEntity
  8
STR
100
AcDbLine
 10
1083.210845240063
 20
3206.90307713153
 30
0.0
 11
1083.210845240063
 21
3166.90307713153
 31
0.0
  0
LINE
  5
1714
330
1F
100
AcDbEntity
  8
STR
100
AcDbLine
 10
1383.210845240063
 20
3206.90307713153
 30
0.0
 11
983.2108452400639
 21
3206.90307713153
 31
0.0
  0
LINE
  5
1715
330
1F
100
AcDbEntity
  8
STR
100
AcDbLine
 10
1433.210845240063
 20
3106.90307713153
 30
0.0
 11
933.2108452400634
 21
3106.90307713153
 31
0.0
  0
LINE
  5
1716
330
1F
100
AcDbEntity
  8
STR
100
AcDbLine
 10
1383.210845240063
 20
3056.90307713153
 30
0.0
 11
983.210845240063
 21
3056.903077131531
 31
0.0
  0
LINE
  5
1717
330
1F
100
AcDbEntity
  8
STR
100
AcDbLine
 10
1933.210845240063
 20
3886.90307713153
 30
0.0
 11
1703.210845240064
 21
3886.90307713153
 31
0.0
  0
LINE
  5
1718
330
1F
100
AcDbEntity
  8
STR
100
AcDbLine
 10
1923.210845240063
 20
3906.90307713153
 30
0.0
 11
1713.210845240064
 21
3906.90307713153
 31
0.0
  0
LINE
  5
1719
330
1F
100
AcDbEntity
  8
STR
100
AcDbLine
 10
1703.210845240064
 20
3896.90307713153
 30
0.0
 11
1703.210845240064
 21
3666.90307713153
 31
0.0
  0
LINE
  5
171A
330
1F
100
AcDbEntity
  8
STR
100
AcDbLine
 10
1933.210845240063
 20
3896.90307713153
 30
0.0
 11
1933.210845240063
 21
1546.903077131529
 31
0.0
  0
LINE
  5
184E
330
1F
100
AcDbEntity
  8
BMK
100
AcDbLine
 10
1183.210845240063
 20
406.9030771315301
 30
0.0
 11
1183.210845240064
 21
4366.268760953338
 31
0.0
  0
LINE
  5
1850
330
1F
100
AcDbEntity
  8
STR
100
AcDbLine
 10
1653.210845240063
 20
3206.90307713153
 30
0.0
 11
1773.210845240063
 21
3206.90307713153
 31
0.0
  0
LINE
  5
1856
330
1F
100
AcDbEntity
  8
STR
100
AcDbLine
 10
1633.210845240063
 20
906.9030771315302
 30
0.0
 11
1633.210845240063
 21
3056.903077131529
 31
0.0
  0
LINE
  5
1857
330
1F
100
AcDbEntity
  8
STR
100
AcDbLine
 10
733.2108452400636
 20
906.9030771315302
 30
0.0
 11
733.2108452400639
 21
3056.903077131531
 31
0.0
  0
LINE
  5
185A
330
1F
100
AcDbEntity
  8
STR
100
AcDbLine
 10
1633.210845240063
 20
3026.903077131529
 30
0.0
 11
733.2108452400635
 21
3026.903077131531
 31
0.0
  0
LINE
  5
185B
330
1F
100
AcDbEntity
  8
STR
100
AcDbLine
 10
1633.210845240063
 20
2976.903077131529
 30
0.0
 11
733.2108452400635
 21
2976.903077131531
 31
0.0
  0
LINE
  5
185C
330
1F
100
AcDbEntity
  8
STR
100
AcDbLine
 10
1703.210845240063
 20
3206.90307713153
 30
0.0
 11
1703.210845240063
 21
1546.903077131529
 31
0.0
  0
LINE
  5
185D
330
1F
100
AcDbEntity
  8
STR
100
AcDbLine
 10
1263.210845240064
 20
3716.903077131529
 30
0.0
 11
1103.210845240063
 21
3716.903077131531
 31
0.0
  0
LINE
  5
185E
330
1F
100
AcDbEntity
  8
STR
100
AcDbLine
 10
1103.210845240063
 20
3716.903077131529
 30
0.0
 11
1103.210845240063
 21
3966.903077131531
 31
0.0
  0
LINE
  5
185F
330
1F
100
AcDbEntity
  8
STR
100
AcDbLine
 10
1263.210845240064
 20
3716.903077131529
 30
0.0
 11
1263.210845240064
 21
3966.903077131529
 31
0.0
  0
LINE
  5
1860
330
1F
100
AcDbEntity
  8
STR
100
AcDbLine
 10
1313.210845240064
 20
3866.90307713153
 30
0.0
 11
1313.210845240064
 21
3966.903077131529
 31
0.0
  0
LINE
  5
1861
330
1F
100
AcDbEntity
  8
STR
100
AcDbLine
 10
1313.210845240064
 20
3966.903077131529
 30
0.0
 11
1103.210845240065
 21
3966.903077131531
 31
0.0
  0
LINE
  5
1862
330
1F
100
AcDbEntity
  8
STR
100
AcDbLine
 10
1313.210845240063
 20
3866.90307713153
 30
0.0
 11
1263.210845240064
 21
3866.90307713153
 31
0.0
  0
LINE
  5
1863
330
1F
100
AcDbEntity
  8
BMK
100
AcDbLine
 10
1393.210845240063
 20
3916.90307713153
 30
0.0
 11
1213.210845240064
 21
3916.90307713153
 31
0.0
  0
LINE
  5
1864
330
1F
100
AcDbEntity
  8
STR
100
AcDbLine
 10
2623.210845240063
 20
1266.90307713153
 30
0.0
 11
2503.210845240063
 21
1266.90307713153
 31
0.0
  0
LINE
  5
1865
330
1F
100
AcDbEntity
  8
STR
100
AcDbLine
 10
2623.210845240063
 20
1296.90307713153
 30
0.0
 11
513.210845240063
 21
1296.903077131531
 31
0.0
  0
LINE
  5
1866
330
1F
100
AcDbEntity
  8
STR
100
AcDbLine
 10
2623.210845240063
 20
1466.90307713153
 30
0.0
 11
2413.210845240063
 21
1466.90307713153
 31
0.0
  0
LINE
  5
1872
330
1F
100
AcDbEntity
  8
STR
100
AcDbLine
 10
2033.210845240065
 20
7122.270377235854
 30
0.0
 11
2033.210845240065
 21
6942.270377235854
 31
0.0
  0
LINE
  5
1873
330
1F
100
AcDbEntity
  8
STR
100
AcDbLine
 10
2153.210845240064
 20
7122.270377235854
 30
0.0
 11
2153.210845240063
 21
5122.270377235853
 31
0.0
  0
LINE
  5
1874
330
1F
100
AcDbEntity
  8
STR
100
AcDbLine
 10
2293.210845240064
 20
7122.270377235854
 30
0.0
 11
2293.210845240064
 21
5122.270377235853
 31
0.0
  0
LINE
  5
1875
330
1F
100
AcDbEntity
  8
STR
100
AcDbLine
 10
2413.210845240064
 20
7122.270377235854
 30
0.0
 11
2413.210845240064
 21
6942.270377235854
 31
0.0
  0
LINE
  5
1878
330
1F
100
AcDbEntity
  8
BMK
100
AcDbLine
 10
328.6750490438935
 20
6122.270377235855
 30
0.0
 11
2227.042650093659
 21
6122.270377235855
 31
0.0
  0
LINE
  5
1879
330
1F
100
AcDbEntity
  8
BMK
100
AcDbLine
 10
1818.210845240064
 20
3946.90307713153
 30
0.0
 11
1818.210845240064
 21
3826.90307713153
 31
0.0
  0
LINE
  5
187A
330
1F
100
AcDbEntity
  8
STR
100
AcDbLine
 10
1653.210845240064
 20
5622.270377235855
 30
0.0
 11
1653.210845240064
 21
6622.270377235856
 31
0.0
  0
LINE
  5
187B
330
1F
100
AcDbEntity
  8
STR
100
AcDbLine
 10
1933.210845240063
 20
5622.270377235855
 30
0.0
 11
1933.210845240064
 21
6622.270377235854
 31
0.0
  0
LINE
  5
187C
330
1F
100
AcDbEntity
  8
STR
100
AcDbLine
 10
2293.210845240063
 20
1466.90307713153
 30
0.0
 11
2153.210845240063
 21
1466.90307713153
 31
0.0
  0
LINE
  5
187D
330
1F
100
AcDbEntity
  8
STR
100
AcDbLine
 10
2033.210845240063
 20
1466.90307713153
 30
0.0
 11
513.210845240063
 21
1466.903077131531
 31
0.0
  0
LINE
  5
187E
330
1F
100
AcDbEntity
  8
STR
100
AcDbLine
 10
2033.210845240064
 20
7122.270377235854
 30
0.0
 11
2413.210845240064
 21
7122.270377235854
 31
0.0
  0
LINE
  5
187F
330
1F
100
AcDbEntity
  8
STR
100
AcDbLine
 10
2033.210845240064
 20
5122.270377235853
 30
0.0
 11
2413.210845240064
 21
5122.270377235855
 31
0.0
  0
LINE
  5
1880
330
1F
100
AcDbEntity
  8
STR
100
AcDbLine
 10
2413.210845240064
 20
3466.903077131529
 30
0.0
 11
2293.210845240064
 21
3466.903077131529
 31
0.0
  0
LINE
  5
1881
330
1F
100
AcDbEntity
  8
STR
100
AcDbLine
 10
2413.210845240064
 20
3466.90307713153
 30
0.0
 11
2413.210845240064
 21
1296.90307713153
 31
0.0
  0
LINE
  5
1882
330
1F
100
AcDbEntity
  8
STR
100
AcDbLine
 10
2293.210845240064
 20
3466.90307713153
 30
0.0
 11
2293.210845240063
 21
1296.90307713153
 31
0.0
  0
LINE
  5
1883
330
1F
100
AcDbEntity
  8
STR
100
AcDbLine
 10
2153.210845240063
 20
3466.90307713153
 30
0.0
 11
2153.210845240063
 21
1296.90307713153
 31
0.0
  0
LINE
  5
1884
330
1F
100
AcDbEntity
  8
STR
100
AcDbLine
 10
2033.210845240064
 20
3466.90307713153
 30
0.0
 11
2033.210845240063
 21
1296.90307713153
 31
0.0
  0
LINE
  5
1885
330
1F
100
AcDbEntity
  8
STR
100
AcDbLine
 10
2153.210845240064
 20
3466.90307713153
 30
0.0
 11
2033.210845240065
 21
3466.903077131531
 31
0.0
  0
LINE
  5
1887
330
1F
100
AcDbEntity
  8
STR
100
AcDbLine
 10
513.2108452400639
 20
6942.270377235856
 30
0.0
 11
2153.210845240064
 21
6942.270377235854
 31
0.0
  0
LINE
  5
1888
330
1F
100
AcDbEntity
  8
STR
100
AcDbLine
 10
513.2108452400634
 20
5302.270377235855
 30
0.0
 11
2153.210845240063
 21
5302.270377235855
 31
0.0
  0
LINE
  5
1889
330
1F
100
AcDbEntity
  8
STR
100
AcDbLine
 10
513.2108452400639
 20
6782.270377235855
 30
0.0
 11
2153.210845240064
 21
6782.270377235855
 31
0.0
  0
LINE
  5
188A
330
1F
100
AcDbEntity
  8
STR
100
AcDbLine
 10
513.2108452400634
 20
5462.270377235855
 30
0.0
 11
2153.210845240063
 21
5462.270377235855
 31
0.0
  0
LINE
  5
188B
330
1F
100
AcDbEntity
  8
STR
100
AcDbLine
 10
2033.210845240064
 20
5302.270377235855
 30
0.0
 11
2033.210845240064
 21
5122.270377235853
 31
0.0
  0
LINE
  5
188C
330
1F
100
AcDbEntity
  8
STR
100
AcDbLine
 10
2413.210845240064
 20
5302.270377235855
 30
0.0
 11
2413.210845240064
 21
5122.270377235853
 31
0.0
  0
LINE
  5
188D
330
1F
100
AcDbEntity
  8
STR
100
AcDbLine
 10
2293.210845240064
 20
6942.270377235854
 30
0.0
 11
2623.210845240063
 21
6942.270377235854
 31
0.0
  0
LINE
  5
188E
330
1F
100
AcDbEntity
  8
STR
100
AcDbLine
 10
2293.210845240064
 20
6782.270377235855
 30
0.0
 11
2623.210845240063
 21
6782.270377235855
 31
0.0
  0
LINE
  5
188F
330
1F
100
AcDbEntity
  8
STR
100
AcDbLine
 10
2293.210845240064
 20
5462.270377235855
 30
0.0
 11
2623.210845240063
 21
5462.270377235853
 31
0.0
  0
LINE
  5
1890
330
1F
100
AcDbEntity
  8
STR
100
AcDbLine
 10
2293.210845240064
 20
5302.270377235855
 30
0.0
 11
2623.210845240063
 21
5302.270377235855
 31
0.0
  0
LINE
  5
1893
330
1F
100
AcDbEntity
  8
STR
100
AcDbLine
 10
1653.210845240064
 20
6622.270377235854
 30
0.0
 11
1933.210845240064
 21
6622.270377235854
 31
0.0
  0
LINE
  5
1894
330
1F
100
AcDbEntity
  8
STR
100
AcDbLine
 10
1653.210845240063
 20
5622.270377235855
 30
0.0
 11
1933.210845240063
 21
5622.270377235855
 31
0.0
  0
LINE
  5
1897
330
1F
100
AcDbEntity
  8
STR
100
AcDbLine
 10
663.2108452400641
 20
6442.270377235854
 30
0.0
 11
1653.210845240064
 21
6442.270377235854
 31
0.0
  0
LINE
  5
1898
330
1F
100
AcDbEntity
  8
STR
100
AcDbLine
 10
663.2108452400641
 20
5802.270377235855
 30
0.0
 11
1653.210845240064
 21
5802.270377235855
 31
0.0
  0
LINE
  5
1899
330
1F
100
AcDbEntity
  8
STR
100
AcDbLine
 10
663.2108452400639
 20
5802.270377235854
 30
0.0
 11
663.2108452400641
 21
6442.270377235854
 31
0.0
  0
LINE
  5
189A
330
1F
100
AcDbEntity
  8
STR
100
AcDbLine
 10
983.2108452400639
 20
6402.270377235854
 30
0.0
 11
763.2108452400639
 21
6402.270377235854
 31
0.0
  0
LINE
  5
189C
330
1F
100
AcDbEntity
  8
STR
100
AcDbLine
 10
983.2108452400639
 20
6182.270377235854
 30
0.0
 11
763.2108452400639
 21
6182.270377235854
 31
0.0
  0
LINE
  5
189D
330
1F
100
AcDbEntity
  8
STR
100
AcDbLine
 10
763.2108452400643
 20
6402.270377235854
 30
0.0
 11
763.2108452400643
 21
6182.270377235854
 31
0.0
  0
LINE
  5
189E
330
1F
100
AcDbEntity
  8
STR
100
AcDbLine
 10
983.2108452400644
 20
6402.270377235854
 30
0.0
 11
983.2108452400644
 21
6182.270377235854
 31
0.0
  0
CIRCLE
  5
18A0
330
1F
100
AcDbEntity
  8
STR
100
AcDbCircle
 10
1183.210845240064
 20
6122.270377235855
 30
0.0
 40
199.9999999999997
  0
CIRCLE
  5
18A1
330
1F
100
AcDbEntity
  8
STR
100
AcDbCircle
 10
1183.210845240064
 20
6122.270377235855
 30
0.0
 40
150.0
  0
LINE
  5
18A2
330
1F
100
AcDbEntity
  8
STR
100
AcDbLine
 10
983.2108452400644
 20
5842.270377235855
 30
0.0
 11
983.2108452400644
 21
6062.270377235854
 31
0.0
  0
LINE
  5
18A3
330
1F
100
AcDbEntity
  8
STR
100
AcDbLine
 10
763.2108452400643
 20
5842.270377235855
 30
0.0
 11
763.2108452400643
 21
6062.270377235854
 31
0.0
  0
LINE
  5
18A4
330
1F
100
AcDbEntity
  8
STR
100
AcDbLine
 10
983.2108452400639
 20
6062.270377235854
 30
0.0
 11
763.2108452400639
 21
6062.270377235854
 31
0.0
  0
LINE
  5
18A5
330
1F
100
AcDbEntity
  8
STR
100
AcDbLine
 10
983.2108452400639
 20
5842.270377235855
 30
0.0
 11
763.2108452400639
 21
5842.270377235855
 31
0.0
  0
LINE
  5
18A6
330
1F
100
AcDbEntity
  8
STR
100
AcDbLine
 10
1383.210845240063
 20
5842.270377235855
 30
0.0
 11
1603.210845240063
 21
5842.270377235855
 31
0.0
  0
LINE
  5
18A7
330
1F
100
AcDbEntity
  8
STR
100
AcDbLine
 10
1383.210845240063
 20
6062.270377235854
 30
0.0
 11
1603.210845240063
 21
6062.270377235854
 31
0.0
  0
LINE
  5
18A8
330
1F
100
AcDbEntity
  8
STR
100
AcDbLine
 10
1603.210845240063
 20
5842.270377235855
 30
0.0
 11
1603.210845240063
 21
6062.270377235854
 31
0.0
  0
LINE
  5
18A9
330
1F
100
AcDbEntity
  8
STR
100
AcDbLine
 10
1383.210845240063
 20
5842.270377235855
 30
0.0
 11
1383.210845240063
 21
6062.270377235854
 31
0.0
  0
LINE
  5
18AA
330
1F
100
AcDbEntity
  8
STR
100
AcDbLine
 10
1383.210845240063
 20
6402.270377235854
 30
0.0
 11
1383.210845240063
 21
6182.270377235854
 31
0.0
  0
LINE
  5
18AB
330
1F
100
AcDbEntity
  8
STR
100
AcDbLine
 10
1603.210845240063
 20
6402.270377235854
 30
0.0
 11
1603.210845240063
 21
6182.270377235854
 31
0.0
  0
LINE
  5
18AC
330
1F
100
AcDbEntity
  8
STR
100
AcDbLine
 10
1383.210845240063
 20
6182.270377235854
 30
0.0
 11
1603.210845240063
 21
6182.270377235854
 31
0.0
  0
LINE
  5
18AD
330
1F
100
AcDbEntity
  8
STR
100
AcDbLine
 10
1383.210845240063
 20
6402.270377235854
 30
0.0
 11
1603.210845240063
 21
6402.270377235854
 31
0.0
  0
LINE
  5
18B1
330
1F
100
AcDbEntity
  8
STR
100
AcDbLine
 10
2623.210845240063
 20
6942.270377235854
 30
0.0
 11
2623.210845240063
 21
5302.270377235855
 31
0.0
  0
LINE
  5
18B2
330
1F
100
AcDbEntity
  8
STR
100
AcDbLine
 10
2503.210845240063
 20
6782.270377235855
 30
0.0
 11
2503.210845240063
 21
5462.270377235853
 31
0.0
  0
LINE
  5
18B5
330
1F
100
AcDbEntity
  8
BMK
100
AcDbLine
 10
2563.210845240063
 20
6802.270377235854
 30
0.0
 11
2563.210845240063
 21
6942.270377235854
 31
0.0
  0
LINE
  5
18B6
330
1F
100
AcDbEntity
  8
BMK
100
AcDbLine
 10
2493.210845240063
 20
6872.270377235854
 30
0.0
 11
2633.210845240063
 21
6872.270377235854
 31
0.0
  0
ARC
  5
18B7
330
1F
100
AcDbEntity
  8
STR
100
AcDbCircle
 10
2563.210845240063
 20
6872.270377235854
 30
0.0
 40
150.0
100
AcDbArc
 50
293.5781784782018
 51
152.181860715346
  0
ARC
  5
18B8
330
1F
100
AcDbEntity
  8
STR
100
AcDbCircle
 10
2563.210845240063
 20
6872.270377235854
 30
0.0
 40
110.0
100
AcDbArc
 50
303.055731150854
 51
140.4788036413577
  0
ARC
  5
18BA
330
1F
100
AcDbEntity
  8
STR
100
AcDbCircle
 10
2563.210845240063
 20
5372.270377235852
 30
0.0
 40
110.0
100
AcDbArc
 50
219.5211963586422
 51
56.94426884914605
  0
ARC
  5
18BB
330
1F
100
AcDbEntity
  8
STR
100
AcDbCircle
 10
2563.210845240063
 20
5372.270377235852
 30
0.0
 40
150.0
100
AcDbArc
 50
207.8181392846539
 51
66.4218215217982
  0
LINE
  5
18BC
330
1F
100
AcDbEntity
  8
BMK
100
AcDbLine
 10
2493.210845240063
 20
5372.270377235852
 30
0.0
 11
2633.210845240063
 21
5372.270377235852
 31
0.0
  0
LINE
  5
18BD
330
1F
100
AcDbEntity
  8
BMK
100
AcDbLine
 10
2563.210845240063
 20
5442.270377235852
 30
0.0
 11
2563.210845240063
 21
5302.270377235852
 31
0.0
  0
LINE
  5
18BE
330
1F
100
AcDbEntity
  8
BMK
100
AcDbLine
 10
493.2108452400639
 20
6872.270377235854
 30
0.0
 11
633.2108452400639
 21
6872.270377235854
 31
0.0
  0
LINE
  5
18BF
330
1F
100
AcDbEntity
  8
BMK
100
AcDbLine
 10
563.2108452400639
 20
6802.270377235854
 30
0.0
 11
563.2108452400639
 21
6942.270377235854
 31
0.0
  0
ARC
  5
18C2
330
1F
100
AcDbEntity
  8
STR
100
AcDbCircle
 10
563.2108452400639
 20
6872.270377235854
 30
0.0
 40
150.0
100
AcDbArc
 50
27.81813928465434
 51
323.1301023541564
  0
ARC
  5
18C3
330
1F
100
AcDbEntity
  8
STR
100
AcDbCircle
 10
563.2108452400639
 20
6872.270377235854
 30
0.0
 40
110.0
100
AcDbArc
 50
39.52119635864283
 51
305.0968012275855
  0
LINE
  5
18C5
330
1F
100
AcDbEntity
  8
STR
100
AcDbLine
 10
513.2108452400639
 20
6942.270377235854
 30
0.0
 11
513.2108452400639
 21
6782.270377235855
 31
0.0
  0
LINE
  5
18C6
330
1F
100
AcDbEntity
  8
STR
100
AcDbLine
 10
513.2108452400634
 20
5462.270377235855
 30
0.0
 11
513.2108452400634
 21
5302.270377235855
 31
0.0
  0
LINE
  5
18C7
330
1F
100
AcDbEntity
  8
STR
100
AcDbLine
 10
513.2108452400639
 20
5302.270377235855
 30
0.0
 11
513.2108452400639
 21
5462.270377235855
 31
0.0
  0
ARC
  5
18C8
330
1F
100
AcDbEntity
  8
STR
100
AcDbCircle
 10
563.2108452400639
 20
5372.270377235856
 30
0.0
 40
110.0
100
AcDbArc
 50
54.90319877241443
 51
320.4788036413571
  0
ARC
  5
18C9
330
1F
100
AcDbEntity
  8
STR
100
AcDbCircle
 10
563.2108452400639
 20
5372.270377235856
 30
0.0
 40
150.0
100
AcDbArc
 50
36.86989764584353
 51
332.1818607153456
  0
LINE
  5
18CA
330
1F
100
AcDbEntity
  8
BMK
100
AcDbLine
 10
563.2108452400639
 20
5442.270377235855
 30
0.0
 11
563.2108452400639
 21
5302.270377235855
 31
0.0
  0
LINE
  5
18CB
330
1F
100
AcDbEntity
  8
BMK
100
AcDbLine
 10
493.2108452400639
 20
5372.270377235856
 30
0.0
 11
633.2108452400639
 21
5372.270377235856
 31
0.0
  0
LINE
  5
18CE
330
1F
100
AcDbEntity
  8
STR
100
AcDbLine
 10
2003.210845240063
 20
1786.903077131529
 30
0.0
 11
2003.210845240063
 21
1626.903077131529
 31
0.0
  0
LINE
  5
18D7
330
1F
100
AcDbEntity
  8
STR
100
AcDbLine
 10
2033.210845240063
 20
1626.903077131529
 30
0.0
 11
2003.210845240063
 21
1626.903077131529
 31
0.0
  0
LINE
  5
18D8
330
1F
100
AcDbEntity
  8
BMK
100
AcDbLine
 10
2068.210845240063
 20
1706.903077131529
 30
0.0
 11
1868.210845240063
 21
1706.903077131529
 31
0.0
  0
LINE
  5
18D9
330
1F
100
AcDbEntity
  8
STR
100
AcDbLine
 10
2003.210845240063
 20
1786.903077131529
 30
0.0
 11
1933.210845240063
 21
1786.90307713153
 31
0.0
  0
LINE
  5
18DA
330
1F
100
AcDbEntity
  8
STR
100
AcDbLine
 10
2033.210845240063
 20
1816.903077131529
 30
0.0
 11
1933.210845240063
 21
1816.90307713153
 31
0.0
  0
LINE
  5
18DC
330
1F
100
AcDbEntity
  8
STR
100
AcDbLine
 10
1963.210845240064
 20
3366.903077131532
 30
0.0
 11
1963.210845240064
 21
3166.903077131532
 31
0.0
  0
LINE
  5
18DD
330
1F
100
AcDbEntity
  8
BMK
100
AcDbLine
 10
2168.210845240064
 20
3266.903077131532
 30
0.0
 11
1899.780059349617
 21
3266.903077131531
 31
0.0
  0
LINE
  5
18DF
330
1F
100
AcDbEntity
  8
STR
100
AcDbLine
 10
2168.210845240064
 20
3346.903077131532
 30
0.0
 11
2168.210845240064
 21
3186.903077131532
 31
0.0
  0
LINE
  5
18E0
330
1F
100
AcDbEntity
  8
STR
100
AcDbLine
 10
2113.210845240065
 20
3366.90307713153
 30
0.0
 11
1933.210845240063
 21
3366.903077131532
 31
0.0
  0
LINE
  5
18E1
330
1F
100
AcDbEntity
  8
STR
100
AcDbLine
 10
2113.210845240064
 20
3166.90307713153
 30
0.0
 11
1933.210845240063
 21
3166.903077131532
 31
0.0
  0
LINE
  5
18E2
330
1F
100
AcDbEntity
  8
BMK
100
AcDbLine
 10
2063.210845240064
 20
3396.90307713153
 30
0.0
 11
2063.210845240064
 21
3136.903077131531
 31
0.0
  0
CIRCLE
  5
18E3
330
1F
100
AcDbEntity
  8
STR
100
AcDbCircle
 10
2063.210845240064
 20
3266.903077131531
 30
0.0
 40
5.0
  0
ARC
  5
18E7
330
1F
100
AcDbEntity
  8
STR
100
AcDbCircle
 10
2113.210845240064
 20
3186.903077131531
 30
0.0
 40
20.0
100
AcDbArc
 50
270.0
 51
0.0
  0
ARC
  5
18E9
330
1F
100
AcDbEntity
  8
STR
100
AcDbCircle
 10
2113.210845240065
 20
3346.90307713153
 30
0.0
 40
20.0
100
AcDbArc
 50
359.9999999999992
 51
89.9999999999992
  0
LINE
  5
18EA
330
1F
100
AcDbEntity
  8
STR
100
AcDbLine
 10
2293.210845240064
 20
3346.903077131531
 30
0.0
 11
2168.210845240063
 21
3346.903077131532
 31
0.0
  0
LINE
  5
18EB
330
1F
100
AcDbEntity
  8
STR
100
AcDbLine
 10
2293.210845240064
 20
3186.90307713153
 30
0.0
 11
2168.210845240064
 21
3186.903077131532
 31
0.0
  0
LINE
  5
18EE
330
1F
100
AcDbEntity
  8
STR
100
AcDbLine
 10
2033.210845240063
 20
1616.90307713153
 30
0.0
 11
1946.608304861619
 21
1466.90307713153
 31
0.0
  0
LINE
  5
18EF
330
1F
100
AcDbEntity
  8
STR
100
AcDbLine
 10
2413.210845240064
 20
1616.90307713153
 30
0.0
 11
2499.813385618507
 21
1466.90307713153
 31
0.0
  0
LINE
  5
18F0
330
1F
100
AcDbEntity
  8
STR
100
AcDbLine
 10
2623.210845240062
 20
1466.90307713153
 30
0.0
 11
2623.210845240063
 21
1296.90307713153
 31
0.0
  0
LINE
  5
18F1
330
1F
100
AcDbEntity
  8
STR
100
AcDbLine
 10
513.210845240063
 20
1296.903077131531
 30
0.0
 11
513.210845240063
 21
1466.903077131531
 31
0.0
  0
LINE
  5
18F2
330
1F
100
AcDbEntity
  8
BMK
100
AcDbLine
 10
563.2108452400634
 20
1546.903077131533
 30
0.0
 11
563.2108452400634
 21
1166.903077131531
 31
0.0
  0
LINE
  5
18F3
330
1F
100
AcDbEntity
  8
BMK
100
AcDbLine
 10
2563.210845240063
 20
1546.90307713153
 30
0.0
 11
2563.210845240063
 21
1166.90307713153
 31
0.0
  0
LINE
  5
18F7
330
1F
100
AcDbEntity
  8
STR
100
AcDbLine
 10
623.210845240063
 20
1266.90307713153
 30
0.0
 11
503.2108452400634
 21
1266.90307713153
 31
0.0
  0
LINE
  5
18F8
330
1F
100
AcDbEntity
  8
STR
100
AcDbLine
 10
733.2108452400635
 20
906.9030771315301
 30
0.0
 11
1633.210845240063
 21
906.9030771315301
 31
0.0
  0
LINE
  5
18F9
330
1F
100
AcDbEntity
  8
STR
100
AcDbLine
 10
733.2108452400635
 20
906.9030771315301
 30
0.0
 11
833.2108452400634
 21
906.9030771315301
 31
0.0
  0
LINE
  5
18FA
330
1F
100
AcDbEntity
  8
STR
100
AcDbLine
 10
833.2108452400634
 20
906.9030771315301
 30
0.0
 11
785.9384401348856
 21
815.5762038127891
 31
0.0
  0
LINE
  5
18FB
330
1F
100
AcDbEntity
  8
STR
100
AcDbLine
 10
733.2108452400635
 20
906.9030771315301
 30
0.0
 11
785.9384401348856
 21
815.5762038127891
 31
0.0
  0
LINE
  5
191D
330
1F
100
AcDbEntity
  8
STR
100
AcDbLine
 10
833.2108452400634
 20
906.9030771315301
 30
0.0
 11
885.9384401348856
 21
815.5762038127891
 31
0.0
  0
LINE
  5
191E
330
1F
100
AcDbEntity
  8
STR
100
AcDbLine
 10
933.2108452400634
 20
906.9030771315301
 30
0.0
 11
885.9384401348856
 21
815.5762038127891
 31
0.0
  0
LINE
  5
191F
330
1F
100
AcDbEntity
  8
STR
100
AcDbLine
 10
833.2108452400634
 20
906.9030771315301
 30
0.0
 11
933.2108452400634
 21
906.9030771315301
 31
0.0
  0
LINE
  5
1920
330
1F
100
AcDbEntity
  8
STR
100
AcDbLine
 10
933.2108452400634
 20
906.9030771315301
 30
0.0
 11
985.9384401348856
 21
815.5762038127891
 31
0.0
  0
LINE
  5
1921
330
1F
100
AcDbEntity
  8
STR
100
AcDbLine
 10
1033.210845240063
 20
906.9030771315301
 30
0.0
 11
985.9384401348856
 21
815.5762038127891
 31
0.0
  0
LINE
  5
1922
330
1F
100
AcDbEntity
  8
STR
100
AcDbLine
 10
933.2108452400634
 20
906.9030771315301
 30
0.0
 11
1033.210845240063
 21
906.9030771315301
 31
0.0
  0
LINE
  5
1923
330
1F
100
AcDbEntity
  8
STR
100
AcDbLine
 10
1033.210845240063
 20
906.9030771315301
 30
0.0
 11
1085.938440134885
 21
815.5762038127891
 31
0.0
  0
LINE
  5
1924
330
1F
100
AcDbEntity
  8
STR
100
AcDbLine
 10
1133.210845240063
 20
906.9030771315301
 30
0.0
 11
1085.938440134885
 21
815.5762038127891
 31
0.0
  0
LINE
  5
1925
330
1F
100
AcDbEntity
  8
STR
100
AcDbLine
 10
1033.210845240063
 20
906.9030771315301
 30
0.0
 11
1133.210845240063
 21
906.9030771315301
 31
0.0
  0
LINE
  5
1926
330
1F
100
AcDbEntity
  8
STR
100
AcDbLine
 10
1133.210845240063
 20
906.9030771315301
 30
0.0
 11
1185.938440134885
 21
815.5762038127891
 31
0.0
  0
LINE
  5
1927
330
1F
100
AcDbEntity
  8
STR
100
AcDbLine
 10
1233.210845240063
 20
906.9030771315301
 30
0.0
 11
1185.938440134885
 21
815.5762038127891
 31
0.0
  0
LINE
  5
1928
330
1F
100
AcDbEntity
  8
STR
100
AcDbLine
 10
1133.210845240063
 20
906.9030771315301
 30
0.0
 11
1233.210845240063
 21
906.9030771315301
 31
0.0
  0
LINE
  5
1929
330
1F
100
AcDbEntity
  8
STR
100
AcDbLine
 10
1233.210845240063
 20
906.9030771315301
 30
0.0
 11
1285.938440134885
 21
815.5762038127891
 31
0.0
  0
LINE
  5
192A
330
1F
100
AcDbEntity
  8
STR
100
AcDbLine
 10
1333.210845240063
 20
906.9030771315301
 30
0.0
 11
1285.938440134885
 21
815.5762038127891
 31
0.0
  0
LINE
  5
192B
330
1F
100
AcDbEntity
  8
STR
100
AcDbLine
 10
1233.210845240063
 20
906.9030771315301
 30
0.0
 11
1333.210845240063
 21
906.9030771315301
 31
0.0
  0
LINE
  5
192C
330
1F
100
AcDbEntity
  8
STR
100
AcDbLine
 10
1333.210845240063
 20
906.9030771315301
 30
0.0
 11
1385.938440134885
 21
815.5762038127891
 31
0.0
  0
LINE
  5
192D
330
1F
100
AcDbEntity
  8
STR
100
AcDbLine
 10
1433.210845240063
 20
906.9030771315301
 30
0.0
 11
1385.938440134885
 21
815.5762038127891
 31
0.0
  0
LINE
  5
192E
330
1F
100
AcDbEntity
  8
STR
100
AcDbLine
 10
1333.210845240063
 20
906.9030771315301
 30
0.0
 11
1433.210845240063
 21
906.9030771315301
 31
0.0
  0
LINE
  5
192F
330
1F
100
AcDbEntity
  8
STR
100
AcDbLine
 10
1433.210845240063
 20
906.9030771315301
 30
0.0
 11
1485.938440134885
 21
815.5762038127891
 31
0.0
  0
LINE
  5
1930
330
1F
100
AcDbEntity
  8
STR
100
AcDbLine
 10
1533.210845240063
 20
906.9030771315301
 30
0.0
 11
1485.938440134885
 21
815.5762038127891
 31
0.0
  0
LINE
  5
1931
330
1F
100
AcDbEntity
  8
STR
100
AcDbLine
 10
1433.210845240063
 20
906.9030771315301
 30
0.0
 11
1533.210845240063
 21
906.9030771315301
 31
0.0
  0
LINE
  5
1932
330
1F
100
AcDbEntity
  8
STR
100
AcDbLine
 10
1533.210845240063
 20
906.9030771315301
 30
0.0
 11
1585.938440134885
 21
815.5762038127891
 31
0.0
  0
LINE
  5
1933
330
1F
100
AcDbEntity
  8
STR
100
AcDbLine
 10
1633.210845240063
 20
906.9030771315301
 30
0.0
 11
1585.938440134885
 21
815.5762038127891
 31
0.0
  0
LINE
  5
1934
330
1F
100
AcDbEntity
  8
STR
100
AcDbLine
 10
1533.210845240063
 20
906.9030771315301
 30
0.0
 11
1633.210845240063
 21
906.9030771315301
 31
0.0
  0
LINE
  5
1935
330
1F
100
AcDbEntity
  8
STR
100
AcDbLine
 10
2143.210845240064
 20
6597.270377235854
 30
0.0
 11
2143.210845240063
 21
6357.270377235854
 31
0.0
  0
LINE
  5
1936
330
1F
100
AcDbEntity
  8
STR
100
AcDbLine
 10
2123.210845240064
 20
6552.270377235854
 30
0.0
 11
2123.210845240064
 21
6502.270377235854
 31
0.0
  0
LINE
  5
1937
330
1F
100
AcDbEntity
  8
STR
100
AcDbLine
 10
1933.210845240064
 20
6552.270377235854
 30
0.0
 11
2123.210845240064
 21
6552.270377235854
 31
0.0
  0
LINE
  5
1938
330
1F
100
AcDbEntity
  8
STR
100
AcDbLine
 10
1933.210845240064
 20
6402.270377235854
 30
0.0
 11
2123.210845240064
 21
6402.270377235854
 31
0.0
  0
LINE
  5
193B
330
1F
100
AcDbEntity
  8
STR
100
AcDbLine
 10
1983.210845240064
 20
6452.270377235854
 30
0.0
 11
2123.210845240064
 21
6452.270377235854
 31
0.0
  0
LINE
  5
193C
330
1F
100
AcDbEntity
  8
STR
100
AcDbLine
 10
1983.210845240064
 20
6502.270377235854
 30
0.0
 11
2123.210845240064
 21
6502.270377235854
 31
0.0
  0
LINE
  5
193D
330
1F
100
AcDbEntity
  8
STR
100
AcDbLine
 10
1983.210845240064
 20
6452.270377235855
 30
0.0
 11
1983.210845240064
 21
6502.270377235854
 31
0.0
  0
LINE
  5
193E
330
1F
100
AcDbEntity
  8
STR
100
AcDbLine
 10
2123.210845240064
 20
6452.270377235854
 30
0.0
 11
2123.210845240064
 21
6402.270377235854
 31
0.0
  0
LINE
  5
1940
330
1F
100
AcDbEntity
  8
STR
100
AcDbLine
 10
2143.210845240064
 20
6597.270377235854
 30
0.0
 11
2153.210845240064
 21
6597.270377235854
 31
0.0
  0
LINE
  5
1941
330
1F
100
AcDbEntity
  8
STR
100
AcDbLine
 10
2143.210845240064
 20
6357.270377235856
 30
0.0
 11
2153.210845240063
 21
6357.270377235856
 31
0.0
  0
LINE
  5
194C
330
1F
100
AcDbEntity
  8
STR
100
AcDbLine
 10
2143.210845240064
 20
6577.270377235854
 30
0.0
 11
2153.210845240064
 21
6577.270377235854
 31
0.0
  0
LINE
  5
194D
330
1F
100
AcDbEntity
  8
STR
100
AcDbLine
 10
2143.210845240064
 20
6557.270377235855
 30
0.0
 11
2153.210845240064
 21
6557.270377235855
 31
0.0
  0
LINE
  5
194E
330
1F
100
AcDbEntity
  8
STR
100
AcDbLine
 10
2143.210845240064
 20
6537.270377235855
 30
0.0
 11
2153.210845240064
 21
6537.270377235855
 31
0.0
  0
LINE
  5
194F
330
1F
100
AcDbEntity
  8
STR
100
AcDbLine
 10
2143.210845240064
 20
6517.270377235854
 30
0.0
 11
2153.210845240064
 21
6517.270377235854
 31
0.0
  0
LINE
  5
1950
330
1F
100
AcDbEntity
  8
STR
100
AcDbLine
 10
2143.210845240064
 20
6497.270377235854
 30
0.0
 11
2153.210845240064
 21
6497.270377235854
 31
0.0
  0
LINE
  5
1951
330
1F
100
AcDbEntity
  8
STR
100
AcDbLine
 10
2143.210845240064
 20
6477.270377235853
 30
0.0
 11
2153.210845240064
 21
6477.270377235853
 31
0.0
  0
LINE
  5
1952
330
1F
100
AcDbEntity
  8
STR
100
AcDbLine
 10
2143.210845240064
 20
6457.270377235855
 30
0.0
 11
2153.210845240064
 21
6457.270377235855
 31
0.0
  0
LINE
  5
1953
330
1F
100
AcDbEntity
  8
STR
100
AcDbLine
 10
2143.210845240064
 20
6437.270377235854
 30
0.0
 11
2153.210845240064
 21
6437.270377235854
 31
0.0
  0
LINE
  5
1954
330
1F
100
AcDbEntity
  8
STR
100
AcDbLine
 10
2143.210845240064
 20
6417.270377235855
 30
0.0
 11
2153.210845240064
 21
6417.270377235855
 31
0.0
  0
LINE
  5
1955
330
1F
100
AcDbEntity
  8
STR
100
AcDbLine
 10
2143.210845240064
 20
6397.270377235855
 30
0.0
 11
2153.210845240064
 21
6397.270377235855
 31
0.0
  0
LINE
  5
1956
330
1F
100
AcDbEntity
  8
STR
100
AcDbLine
 10
2143.210845240064
 20
6377.270377235855
 30
0.0
 11
2153.210845240064
 21
6377.270377235855
 31
0.0
  0
LINE
  5
1957
330
1F
100
AcDbEntity
  8
STR
100
AcDbLine
 10
2143.210845240064
 20
6357.270377235854
 30
0.0
 11
2153.210845240064
 21
6357.270377235854
 31
0.0
  0
LINE
  5
195C
330
1F
100
AcDbEntity
  8
STR
100
AcDbLine
 10
2143.210845240062
 20
5887.270377235854
 30
0.0
 11
2153.210845240062
 21
5887.270377235853
 31
0.0
  0
LINE
  5
195D
330
1F
100
AcDbEntity
  8
STR
100
AcDbLine
 10
2143.210845240062
 20
5867.270377235854
 30
0.0
 11
2153.210845240062
 21
5867.270377235853
 31
0.0
  0
LINE
  5
195E
330
1F
100
AcDbEntity
  8
STR
100
AcDbLine
 10
2143.210845240062
 20
5847.270377235854
 30
0.0
 11
2153.210845240062
 21
5847.270377235853
 31
0.0
  0
LINE
  5
195F
330
1F
100
AcDbEntity
  8
STR
100
AcDbLine
 10
2143.210845240062
 20
5827.270377235854
 30
0.0
 11
2153.210845240062
 21
5827.270377235852
 31
0.0
  0
LINE
  5
1960
330
1F
100
AcDbEntity
  8
STR
100
AcDbLine
 10
2143.210845240061
 20
5807.270377235854
 30
0.0
 11
2153.210845240062
 21
5807.270377235853
 31
0.0
  0
LINE
  5
1961
330
1F
100
AcDbEntity
  8
STR
100
AcDbLine
 10
2143.210845240061
 20
5787.270377235853
 30
0.0
 11
2153.210845240062
 21
5787.270377235852
 31
0.0
  0
LINE
  5
1962
330
1F
100
AcDbEntity
  8
STR
100
AcDbLine
 10
2143.210845240061
 20
5767.270377235854
 30
0.0
 11
2153.210845240062
 21
5767.270377235853
 31
0.0
  0
LINE
  5
1963
330
1F
100
AcDbEntity
  8
STR
100
AcDbLine
 10
2143.210845240061
 20
5747.270377235853
 30
0.0
 11
2153.210845240061
 21
5747.270377235853
 31
0.0
  0
LINE
  5
1964
330
1F
100
AcDbEntity
  8
STR
100
AcDbLine
 10
2143.210845240061
 20
5727.270377235853
 30
0.0
 11
2153.210845240061
 21
5727.270377235853
 31
0.0
  0
LINE
  5
1965
330
1F
100
AcDbEntity
  8
STR
100
AcDbLine
 10
2143.210845240061
 20
5707.270377235854
 30
0.0
 11
2153.210845240061
 21
5707.270377235853
 31
0.0
  0
LINE
  5
1966
330
1F
100
AcDbEntity
  8
STR
100
AcDbLine
 10
2143.21084524006
 20
5687.270377235853
 30
0.0
 11
2153.21084524006
 21
5687.270377235853
 31
0.0
  0
LINE
  5
1967
330
1F
100
AcDbEntity
  8
STR
100
AcDbLine
 10
2143.21084524006
 20
5667.270377235854
 30
0.0
 11
2153.21084524006
 21
5667.270377235853
 31
0.0
  0
LINE
  5
1968
330
1F
100
AcDbEntity
  8
STR
100
AcDbLine
 10
2143.210845240062
 20
5887.270377235853
 30
0.0
 11
2153.210845240062
 21
5887.270377235852
 31
0.0
  0
LINE
  5
1969
330
1F
100
AcDbEntity
  8
STR
100
AcDbLine
 10
2143.21084524006
 20
5647.270377235853
 30
0.0
 11
2153.21084524006
 21
5647.270377235853
 31
0.0
  0
LINE
  5
196A
330
1F
100
AcDbEntity
  8
STR
100
AcDbLine
 10
2123.210845240062
 20
5792.270377235854
 30
0.0
 11
2123.210845240062
 21
5842.270377235854
 31
0.0
  0
LINE
  5
196B
330
1F
100
AcDbEntity
  8
STR
100
AcDbLine
 10
1983.210845240061
 20
5792.270377235854
 30
0.0
 11
1983.210845240061
 21
5742.270377235854
 31
0.0
  0
LINE
  5
196C
330
1F
100
AcDbEntity
  8
STR
100
AcDbLine
 10
1983.210845240061
 20
5742.270377235854
 30
0.0
 11
2123.210845240061
 21
5742.270377235854
 31
0.0
  0
LINE
  5
196D
330
1F
100
AcDbEntity
  8
STR
100
AcDbLine
 10
1983.210845240061
 20
5792.270377235855
 30
0.0
 11
2123.210845240061
 21
5792.270377235854
 31
0.0
  0
LINE
  5
196E
330
1F
100
AcDbEntity
  8
STR
100
AcDbLine
 10
1933.210845240062
 20
5842.270377235855
 30
0.0
 11
2123.210845240062
 21
5842.270377235854
 31
0.0
  0
LINE
  5
196F
330
1F
100
AcDbEntity
  8
STR
100
AcDbLine
 10
1933.21084524006
 20
5692.270377235854
 30
0.0
 11
2123.21084524006
 21
5692.270377235853
 31
0.0
  0
LINE
  5
1970
330
1F
100
AcDbEntity
  8
STR
100
AcDbLine
 10
2123.21084524006
 20
5692.270377235853
 30
0.0
 11
2123.210845240061
 21
5742.270377235854
 31
0.0
  0
LINE
  5
1971
330
1F
100
AcDbEntity
  8
STR
100
AcDbLine
 10
2143.21084524006
 20
5647.270377235853
 30
0.0
 11
2143.210845240062
 21
5887.270377235854
 31
0.0
  0
LINE
  5
1972
330
1F
100
AcDbEntity
  8
STR
100
AcDbLine
 10
2063.210845240064
 20
6382.270377235855
 30
0.0
 11
2063.210845240064
 21
6622.270377235854
 31
0.0
  0
LINE
  5
1975
330
1F
100
AcDbEntity
  8
STR
100
AcDbLine
 10
2063.210845240064
 20
6382.270377235855
 30
0.0
 11
2153.210845240064
 21
6122.270377235855
 31
0.0
  0
LINE
  5
1976
330
1F
100
AcDbEntity
  8
STR
100
AcDbLine
 10
2063.210845240067
 20
5862.270377235855
 30
0.0
 11
2153.210845240064
 21
6122.270377235857
 31
0.0
  0
LINE
  5
1977
330
1F
100
AcDbEntity
  8
STR
100
AcDbLine
 10
2063.210845240067
 20
5862.270377235855
 30
0.0
 11
2063.210845240068
 21
5622.270377235856
 31
0.0
  0
LINE
  5
1978
330
1F
100
AcDbEntity
  8
STR
100
AcDbLine
 10
1832.270737564213
 20
6782.270377235855
 30
0.0
 11
1887.65535294883
 21
6622.270377235856
 31
0.0
  0
LINE
  5
1979
330
1F
100
AcDbEntity
  8
STR
100
AcDbLine
 10
1832.270737564213
 20
6782.270377235855
 30
0.0
 11
1832.270737564213
 21
6942.270377235854
 31
0.0
  0
LINE
  5
197A
330
1F
100
AcDbEntity
  8
STR
100
AcDbLine
 10
1832.270737564213
 20
5462.270377235856
 30
0.0
 11
1887.65535294883
 21
5622.270377235855
 31
0.0
  0
LINE
  5
197B
330
1F
100
AcDbEntity
  8
STR
100
AcDbLine
 10
1832.270737564213
 20
5462.270377235856
 30
0.0
 11
1832.270737564213
 21
5302.270377235855
 31
0.0
  0
LINE
  5
197C
330
1F
100
AcDbEntity
  8
STR
100
AcDbLine
 10
1818.210845240063
 20
6002.270377235854
 30
0.0
 11
1818.210845240064
 21
6242.270377235854
 31
0.0
  0
TEXT
  5
1A2C
330
1F
100
AcDbEntity
  8
STR
100
AcDbText
 10
509.1057127981042
 20
2003.296575612428
 30
0.0
 40
60.0
  1
MAX1200A
 50
90.0
100
AcDbText
  0
LINE
  5
1A2D
330
1F
100
AcDbEntity
  8
STR
100
AcDbLine
 10
533.2108452400638
 20
1981.90307713153
 30
0.0
 11
533.2108452400638
 21
2467.479363934873
 31
0.0
  0
LINE
  5
1A2E
330
1F
100
AcDbEntity
  8
STR
100
AcDbLine
 10
733.2108452400638
 20
1981.90307713153
 30
0.0
 11
533.2108452400638
 21
1981.90307713153
 31
0.0
  0
LINE
  5
1B1E
330
1F
100
AcDbEntity
  8
STR
100
AcDbLine
 10
763.2108452400639
 20
3826.90307713153
 30
0.0
 11
545.3384242621009
 21
4444.642893598095
 31
0.0
  0
LINE
  5
1B1F
330
1F
100
AcDbEntity
  8
STR
100
AcDbLine
 10
545.3384242621019
 20
4444.642893598095
 30
0.0
 11
1191.656077028033
 21
4444.642893598095
 31
0.0
  0
TEXT
  5
1B20
330
1F
100
AcDbEntity
  8
STR
100
AcDbText
 10
566.7319227429993
 20
4468.748026040056
 30
0.0
 40
60.0
  1
KYT-5030WH
100
AcDbText
  0
TEXT
  5
1B7D
330
1F
100
AcDbEntity
  8
STR
100
AcDbText
 10
1837.393175600062
 20
8458.502810126429
 30
0.0
 40
30.0
  1
-ベビーモール-
100
AcDbText
  0
TEXT
  5
1B7E
330
1F
100
AcDbEntity
  8
STR
100
AcDbText
 10
2115.488164089156
 20
8050.629500683738
 30
0.0
 40
30.0
  1
（寸法の比率は正確です。倍率を合わせて使用してください。）
100
AcDbText
  0
LINE
  5
1B91
330
1F
100
AcDbEntity
  8
STR
100
AcDbLine
 10
623.2108452400638
 20
5952.270377235851
 30
0.0
 11
623.2108452400638
 21
6292.270377235857
 31
0.0
  0
LINE
  5
1B92
330
1F
100
AcDbEntity
  8
STR
100
AcDbLine
 10
653.2108452400639
 20
5952.270377235854
 30
0.0
 11
653.2108452400639
 21
6292.270377235855
 31
0.0
  0
LINE
  5
1B93
330
1F
100
AcDbEntity
  8
STR
100
AcDbLine
 10
663.2108452400639
 20
5952.270377235854
 30
0.0
 11
538.2108452400639
 21
5952.27037723585
 31
0.0
  0
LINE
  5
1B94
330
1F
100
AcDbEntity
  8
STR
100
AcDbLine
 10
538.2108452400639
 20
5952.27037723585
 30
0.0
 11
538.2108452400639
 21
6292.270377235861
 31
0.0
  0
LINE
  5
1B95
330
1F
100
AcDbEntity
  8
STR
100
AcDbLine
 10
498.2108452400638
 20
6002.270377235854
 30
0.0
 11
498.2108452400638
 21
6242.270377235855
 31
0.0
  0
LINE
  5
1B96
330
1F
100
AcDbEntity
  8
STR
100
AcDbLine
 10
498.2108452400638
 20
6072.270377235852
 30
0.0
 11
453.2108452400639
 21
6072.270377235855
 31
0.0
  0
LINE
  5
1B97
330
1F
100
AcDbEntity
  8
STR
100
AcDbLine
 10
498.2108452400638
 20
6002.270377235855
 30
0.0
 11
538.2108452400639
 21
6002.270377235852
 31
0.0
  0
LINE
  5
1B98
330
1F
100
AcDbEntity
  8
STR
100
AcDbLine
 10
498.2108452400638
 20
6242.270377235855
 30
0.0
 11
538.2108452400639
 21
6242.270377235855
 31
0.0
  0
LINE
  5
1B99
330
1F
100
AcDbEntity
  8
STR
100
AcDbLine
 10
663.2108452400639
 20
6292.270377235854
 30
0.0
 11
538.2108452400639
 21
6292.270377235861
 31
0.0
  0
CIRCLE
  5
1B9A
330
1F
100
AcDbEntity
  8
STR
100
AcDbCircle
 10
443.2108452400642
 20
6072.270377235855
 30
0.0
 40
10.0
  0
CIRCLE
  5
1B9B
330
1F
100
AcDbEntity
  8
STR
100
AcDbCircle
 10
443.2108452400642
 20
6172.270377235856
 30
0.0
 40
10.0
  0
LINE
  5
1B9C
330
1F
100
AcDbEntity
  8
STR
100
AcDbLine
 10
498.2108452400638
 20
6172.270377235856
 30
0.0
 11
453.2108452400639
 21
6172.270377235856
 31
0.0
  0
LINE
  5
1B9D
330
1F
100
AcDbEntity
  8
STR
100
AcDbLine
 10
2259.457572054962
 20
3068.735458940082
 30
0.0
 11
2259.457572054962
 21
2868.735458940082
 31
0.0
  0
LINE
  5
1B9E
330
1F
100
AcDbEntity
  8
STR
100
AcDbLine
 10
2259.457572054962
 20
2868.735458940082
 30
0.0
 11
2234.457572054961
 21
2912.036729129304
 31
0.0
  0
LINE
  5
1B9F
330
1F
100
AcDbEntity
  8
STR
100
AcDbLine
 10
2234.457572054961
 20
2912.036729129304
 30
0.0
 11
2259.457572054962
 21
2912.036729129303
 31
0.0
  0
LINE
  5
1BA0
330
1F
100
AcDbEntity
  8
STR
100
AcDbLine
 10
2216.799005360138
 20
3025.43418875086
 30
0.0
 11
2191.799005360139
 21
3025.43418875086
 31
0.0
  0
LINE
  5
1BA1
330
1F
100
AcDbEntity
  8
STR
100
AcDbLine
 10
2191.799005360139
 20
3068.735458940082
 30
0.0
 11
2216.799005360138
 21
3025.43418875086
 31
0.0
  0
LINE
  5
1BA2
330
1F
100
AcDbEntity
  8
STR
100
AcDbLine
 10
2191.799005360139
 20
2868.735458940082
 30
0.0
 11
2191.799005360139
 21
3068.735458940082
 31
0.0
  0
LINE
  5
1C02
330
1F
100
AcDbEntity
  8
STR
100
AcDbLine
 10
1183.210845240063
 20
2387.210919042434
 30
0.0
 11
1183.210845240063
 21
2387.835919042434
 31
0.0
  0
LINE
  5
1C03
330
1F
100
AcDbEntity
  8
STR
100
AcDbLine
 10
1933.210845240063
 20
2387.210919042434
 30
0.0
 11
1933.210845240063
 21
2387.835919042434
 31
0.0
  0
LINE
  5
1C04
330
1F
100
AcDbEntity
  8
STR
100
AcDbLine
 10
1233.210845240063
 20
2386.585919042434
 30
0.0
 11
1883.210845240063
 21
2386.585919042434
 31
0.0
  0
LINE
  5
1C08
330
1F
100
AcDbEntity
  8
STR
100
AcDbLine
 10
2653.835845240063
 20
1266.90307713153
 30
0.0
 11
3088.404502509125
 21
1266.90307713153
 31
0.0
  0
LINE
  5
1C09
330
1F
100
AcDbEntity
  8
STR
100
AcDbLine
 10
2201.745173874595
 20
3966.903077131529
 30
0.0
 11
3088.404502509126
 21
3966.903077131529
 31
0.0
  0
LINE
  5
1C0A
330
1F
100
AcDbEntity
  8
STR
100
AcDbLine
 10
3087.154502509125
 20
1316.90307713153
 30
0.0
 11
3087.154502509125
 21
3916.90307713153
 31
0.0
  0
LINE
  5
1C0E
330
1F
100
AcDbEntity
  8
STR
100
AcDbLine
 10
2653.835845240063
 20
1266.90307713153
 30
0.0
 11
2928.183636369167
 21
1266.90307713153
 31
0.0
  0
LINE
  5
1C0F
330
1F
100
AcDbEntity
  8
STR
100
AcDbLine
 10
2654.460845240063
 20
3466.903077131529
 30
0.0
 11
2928.183636369168
 21
3466.903077131529
 31
0.0
  0
LINE
  5
1C10
330
1F
100
AcDbEntity
  8
STR
100
AcDbLine
 10
2926.933636369168
 20
1316.90307713153
 30
0.0
 11
2926.933636369168
 21
3416.90307713153
 31
0.0
  0
LINE
  5
1C14
330
1F
100
AcDbEntity
  8
STR
100
AcDbLine
 10
1633.210845240063
 20
1980.02807713153
 30
0.0
 11
1633.210845240063
 21
1979.40307713153
 31
0.0
  0
LINE
  5
1C15
330
1F
100
AcDbEntity
  8
STR
100
AcDbLine
 10
733.2108452400638
 20
1981.278077131529
 30
0.0
 11
733.2108452400638
 21
1981.903077131529
 31
0.0
  0
LINE
  5
1C16
330
1F
100
AcDbEntity
  8
STR
100
AcDbLine
 10
1583.210845240063
 20
1980.653077131529
 30
0.0
 11
783.2108452400638
 21
1980.653077131529
 31
0.0
  0
LINE
  5
1C19
330
1F
100
AcDbEntity
  8
STR
100
AcDbLine
 10
413.2108452400639
 20
5091.645377235853
 30
0.0
 11
413.2108452400639
 21
4841.020377235853
 31
0.0
  0
LINE
  5
1C1A
330
1F
100
AcDbEntity
  8
STR
100
AcDbLine
 10
2713.210845240063
 20
5091.645377235853
 30
0.0
 11
2713.210845240063
 21
4841.020377235853
 31
0.0
  0
LINE
  5
1C1B
330
1F
100
AcDbEntity
  8
STR
100
AcDbLine
 10
463.2108452400639
 20
4842.270377235854
 30
0.0
 11
2663.210845240064
 21
4842.270377235854
 31
0.0
  0
LINE
  5
1C1F
330
1F
100
AcDbEntity
  8
STR
100
AcDbLine
 10
2743.835845240063
 20
5122.270377235853
 30
0.0
 11
2994.460845240064
 21
5122.270377235853
 31
0.0
  0
LINE
  5
1C20
330
1F
100
AcDbEntity
  8
STR
100
AcDbLine
 10
2744.460845240063
 20
7122.270377235854
 30
0.0
 11
2994.460845240064
 21
7122.270377235854
 31
0.0
  0
LINE
  5
1C21
330
1F
100
AcDbEntity
  8
STR
100
AcDbLine
 10
2993.210845240064
 20
5172.270377235854
 30
0.0
 11
2993.210845240064
 21
7072.270377235854
 31
0.0
  0
TEXT
  5
1C25
330
1F
100
AcDbEntity
  8
STR
100
AcDbText
 10
2963.210845240062
 20
6027.270377235854
 30
0.0
 40
60.0
  1
2000
 50
90.0
100
AcDbText
  0
LINE
  5
1C26
330
1F
100
AcDbEntity
  8
STR
  6
BYBLOCK
 62
     0
100
AcDbLine
 10
2979.813385740063
 20
7072.270377235854
 30
0.0
 11
2993.210845240064
 21
7122.270377235854
 31
0.0
  0
LINE
  5
1C27
330
1F
100
AcDbEntity
  8
STR
  6
BYBLOCK
 62
     0
100
AcDbLine
 10
2993.210845240064
 20
7122.270377235854
 30
0.0
 11
3006.608304740064
 21
7072.270377235854
 31
0.0
  0
LINE
  5
1C28
330
1F
100
AcDbEntity
  8
STR
  6
BYBLOCK
 62
     0
100
AcDbLine
 10
2993.210845240064
 20
7122.270377235854
 30
0.0
 11
2993.210845240064
 21
7072.270377235854
 31
0.0
  0
LINE
  5
1C29
330
1F
100
AcDbEntity
  8
STR
  6
BYBLOCK
 62
     0
100
AcDbLine
 10
3006.608304740064
 20
5172.270377235854
 30
0.0
 11
2993.210845240064
 21
5122.270377235853
 31
0.0
  0
LINE
  5
1C2A
330
1F
100
AcDbEntity
  8
STR
  6
BYBLOCK
 62
     0
100
AcDbLine
 10
2993.210845240064
 20
5122.270377235853
 30
0.0
 11
2979.813385740063
 21
5172.270377235854
 31
0.0
  0
LINE
  5
1C2B
330
1F
100
AcDbEntity
  8
STR
  6
BYBLOCK
 62
     0
100
AcDbLine
 10
2993.210845240064
 20
5122.270377235853
 30
0.0
 11
2993.210845240064
 21
5172.270377235854
 31
0.0
  0
TEXT
  5
1C2C
330
1F
100
AcDbEntity
  8
STR
100
AcDbText
 10
1463.210845240063
 20
4872.270377235853
 30
0.0
 40
60.0
  1
2300
100
AcDbText
  0
LINE
  5
1C2D
330
1F
100
AcDbEntity
  8
STR
  6
BYBLOCK
 62
     0
100
AcDbLine
 10
2663.210845240064
 20
4855.667836735854
 30
0.0
 11
2713.210845240063
 21
4842.270377235854
 31
0.0
  0
LINE
  5
1C2E
330
1F
100
AcDbEntity
  8
STR
  6
BYBLOCK
 62
     0
100
AcDbLine
 10
2713.210845240063
 20
4842.270377235854
 30
0.0
 11
2663.210845240064
 21
4828.872917735854
 31
0.0
  0
LINE
  5
1C2F
330
1F
100
AcDbEntity
  8
STR
  6
BYBLOCK
 62
     0
100
AcDbLine
 10
2713.210845240063
 20
4842.270377235854
 30
0.0
 11
2663.210845240064
 21
4842.270377235854
 31
0.0
  0
LINE
  5
1C30
330
1F
100
AcDbEntity
  8
STR
  6
BYBLOCK
 62
     0
100
AcDbLine
 10
463.2108452400639
 20
4828.872917735854
 30
0.0
 11
413.2108452400639
 21
4842.270377235854
 31
0.0
  0
LINE
  5
1C31
330
1F
100
AcDbEntity
  8
STR
  6
BYBLOCK
 62
     0
100
AcDbLine
 10
413.2108452400639
 20
4842.270377235854
 30
0.0
 11
463.2108452400639
 21
4855.667836735854
 31
0.0
  0
LINE
  5
1C32
330
1F
100
AcDbEntity
  8
STR
  6
BYBLOCK
 62
     0
100
AcDbLine
 10
413.2108452400639
 20
4842.270377235854
 30
0.0
 11
463.2108452400639
 21
4842.270377235854
 31
0.0
  0
LINE
  5
1C33
330
1F
100
AcDbEntity
  8
STR
  6
BYBLOCK
 62
     0
100
AcDbLine
 10
783.2108452400638
 20
1967.255617631529
 30
0.0
 11
733.2108452400638
 21
1980.653077131529
 31
0.0
  0
LINE
  5
1C34
330
1F
100
AcDbEntity
  8
STR
  6
BYBLOCK
 62
     0
100
AcDbLine
 10
733.2108452400638
 20
1980.653077131529
 30
0.0
 11
783.2108452400638
 21
1994.050536631529
 31
0.0
  0
LINE
  5
1C35
330
1F
100
AcDbEntity
  8
STR
  6
BYBLOCK
 62
     0
100
AcDbLine
 10
733.2108452400638
 20
1980.653077131529
 30
0.0
 11
783.2108452400638
 21
1980.653077131529
 31
0.0
  0
LINE
  5
1C36
330
1F
100
AcDbEntity
  8
STR
  6
BYBLOCK
 62
     0
100
AcDbLine
 10
1583.210845240063
 20
1994.050536631529
 30
0.0
 11
1633.210845240063
 21
1980.653077131529
 31
0.0
  0
LINE
  5
1C37
330
1F
100
AcDbEntity
  8
STR
  6
BYBLOCK
 62
     0
100
AcDbLine
 10
1633.210845240063
 20
1980.653077131529
 30
0.0
 11
1583.210845240063
 21
1967.255617631529
 31
0.0
  0
LINE
  5
1C38
330
1F
100
AcDbEntity
  8
STR
  6
BYBLOCK
 62
     0
100
AcDbLine
 10
1633.210845240063
 20
1980.653077131529
 30
0.0
 11
1583.210845240063
 21
1980.653077131529
 31
0.0
  0
TEXT
  5
1C39
330
1F
100
AcDbEntity
  8
STR
100
AcDbText
 10
2896.933636369167
 20
2266.90307713153
 30
0.0
 40
60.0
  1
2200
 50
90.0
100
AcDbText
  0
LINE
  5
1C3A
330
1F
100
AcDbEntity
  8
STR
  6
BYBLOCK
 62
     0
100
AcDbLine
 10
2913.536176869168
 20
3416.90307713153
 30
0.0
 11
2926.933636369168
 21
3466.903077131529
 31
0.0
  0
LINE
  5
1C3B
330
1F
100
AcDbEntity
  8
STR
  6
BYBLOCK
 62
     0
100
AcDbLine
 10
2926.933636369168
 20
3466.903077131529
 30
0.0
 11
2940.331095869168
 21
3416.90307713153
 31
0.0
  0
LINE
  5
1C3C
330
1F
100
AcDbEntity
  8
STR
  6
BYBLOCK
 62
     0
100
AcDbLine
 10
2926.933636369168
 20
3466.903077131529
 30
0.0
 11
2926.933636369168
 21
3416.90307713153
 31
0.0
  0
LINE
  5
1C3D
330
1F
100
AcDbEntity
  8
STR
  6
BYBLOCK
 62
     0
100
AcDbLine
 10
2940.331095869167
 20
1316.90307713153
 30
0.0
 11
2926.933636369168
 21
1266.90307713153
 31
0.0
  0
LINE
  5
1C3E
330
1F
100
AcDbEntity
  8
STR
  6
BYBLOCK
 62
     0
100
AcDbLine
 10
2926.933636369168
 20
1266.90307713153
 30
0.0
 11
2913.536176869167
 21
1316.90307713153
 31
0.0
  0
LINE
  5
1C3F
330
1F
100
AcDbEntity
  8
STR
  6
BYBLOCK
 62
     0
100
AcDbLine
 10
2926.933636369168
 20
1266.90307713153
 30
0.0
 11
2926.933636369168
 21
1316.90307713153
 31
0.0
  0
TEXT
  5
1C40
330
1F
100
AcDbEntity
  8
STR
100
AcDbText
 10
3057.154502509125
 20
2269.124975592938
 30
0.0
 40
60.0
  1
MAX2700
 50
90.0
100
AcDbText
  0
LINE
  5
1C41
330
1F
100
AcDbEntity
  8
STR
  6
BYBLOCK
 62
     0
100
AcDbLine
 10
3073.757043009126
 20
3916.90307713153
 30
0.0
 11
3087.154502509125
 21
3966.903077131529
 31
0.0
  0
LINE
  5
1C42
330
1F
100
AcDbEntity
  8
STR
  6
BYBLOCK
 62
     0
100
AcDbLine
 10
3087.154502509125
 20
3966.903077131529
 30
0.0
 11
3100.551962009125
 21
3916.90307713153
 31
0.0
  0
LINE
  5
1C43
330
1F
100
AcDbEntity
  8
STR
  6
BYBLOCK
 62
     0
100
AcDbLine
 10
3087.154502509125
 20
3966.903077131529
 30
0.0
 11
3087.154502509125
 21
3916.90307713153
 31
0.0
  0
LINE
  5
1C44
330
1F
100
AcDbEntity
  8
STR
  6
BYBLOCK
 62
     0
100
AcDbLine
 10
3100.551962009125
 20
1316.90307713153
 30
0.0
 11
3087.154502509125
 21
1266.90307713153
 31
0.0
  0
LINE
  5
1C45
330
1F
100
AcDbEntity
  8
STR
  6
BYBLOCK
 62
     0
100
AcDbLine
 10
3087.154502509125
 20
1266.90307713153
 30
0.0
 11
3073.757043009125
 21
1316.90307713153
 31
0.0
  0
LINE
  5
1C46
330
1F
100
AcDbEntity
  8
STR
  6
BYBLOCK
 62
     0
100
AcDbLine
 10
3087.154502509125
 20
1266.90307713153
 30
0.0
 11
3087.154502509125
 21
1316.90307713153
 31
0.0
  0
TEXT
  5
1C47
330
1F
100
AcDbEntity
  8
STR
100
AcDbText
 10
1483.210845240063
 20
2416.585919042434
 30
0.0
 40
60.0
  1
750
100
AcDbText
  0
LINE
  5
1C48
330
1F
100
AcDbEntity
  8
STR
  6
BYBLOCK
 62
     0
100
AcDbLine
 10
1883.210845240063
 20
2399.983378542434
 30
0.0
 11
1933.210845240063
 21
2386.585919042434
 31
0.0
  0
LINE
  5
1C49
330
1F
100
AcDbEntity
  8
STR
  6
BYBLOCK
 62
     0
100
AcDbLine
 10
1933.210845240063
 20
2386.585919042434
 30
0.0
 11
1883.210845240063
 21
2373.188459542434
 31
0.0
  0
LINE
  5
1C4A
330
1F
100
AcDbEntity
  8
STR
  6
BYBLOCK
 62
     0
100
AcDbLine
 10
1933.210845240063
 20
2386.585919042434
 30
0.0
 11
1883.210845240063
 21
2386.585919042434
 31
0.0
  0
LINE
  5
1C4B
330
1F
100
AcDbEntity
  8
STR
  6
BYBLOCK
 62
     0
100
AcDbLine
 10
1233.210845240063
 20
2373.188459542434
 30
0.0
 11
1183.210845240063
 21
2386.585919042434
 31
0.0
  0
LINE
  5
1C4C
330
1F
100
AcDbEntity
  8
STR
  6
BYBLOCK
 62
     0
100
AcDbLine
 10
1183.210845240063
 20
2386.585919042434
 30
0.0
 11
1233.210845240063
 21
2399.983378542434
 31
0.0
  0
LINE
  5
1C4D
330
1F
100
AcDbEntity
  8
STR
  6
BYBLOCK
 62
     0
100
AcDbLine
 10
1183.210845240063
 20
2386.585919042434
 30
0.0
 11
1233.210845240063
 21
2386.585919042434
 31
0.0
  0
VIEWPORT
  5
1B5C
102
{ACAD_XDICTIONARY
360
1BB5
102
}
330
1B55
100
AcDbEntity
 67
     1
  8
0
100
AcDbViewport
 10
99.11291408538819
 20
142.5680856704711
 30
0.0
 40
405.3284468049269
 41
314.1924854736328
 68
     1
 69
     1
1001
ACAD
1000
MVIEW
1002
{
1070
    16
1010
0.0
1020
0.0
1030
0.0
1010
0.0
1020
0.0
1030
1.0
1040
0.0
1040
314.1924854736328
1040
99.11291408538819
1040
142.5680856704711
1040
50.0
1040
0.0
1040
0.0
1070
     0
1070
  1000
1070
     1
1070
     1
1070
     0
1070
     0
1070
     0
1070
     0
1040
0.0
1040
0.0
1040
0.0
1040
10.0
1040
10.0
1040
10.0
1040
10.0
1070
     0
1002
{
1002
}
1002
}
  0
VIEWPORT
  5
1B5E
102
{ACAD_XDICTIONARY
360
1BB7
102
}
330
1B55
100
AcDbEntity
 67
     1
  8
STR
100
AcDbViewport
 10
97.54172233073912
 20
141.5157859897502
 30
0.0
 40
202.539172606581
 41
296.6914743238406
 68
     2
 69
     2
1001
ACAD
1000
MVIEW
1002
{
1070
    16
1010
0.0
1020
0.0
1030
0.0
1010
0.0
1020
0.0
1030
1.0
1040
0.0
1040
8900.74422971522
1040
1700.272154238819
1040
4424.436072524621
1040
50.0
1040
0.0
1040
0.0
1070
     0
1070
  1000
1070
     1
1070
     3
1070
     0
1070
     0
1070
     0
1070
     0
1040
0.0
1040
0.0
1040
0.0
1040
10.0
1040
10.0
1040
10.0
1040
10.0
1070
     0
1002
{
1002
}
1002
}
  0
ENDSEC
  0
SECTION
  2
OBJECTS
  0
DICTIONARY
  5
C
330
0
100
AcDbDictionary
  3
ACAD_COLOR
350
6B
  3
ACAD_GROUP
350
D
  3
ACAD_LAYOUT
350
1A
  3
ACAD_MATERIAL
350
6A
  3
ACAD_MLINESTYLE
350
17
  3
ACAD_PLOTSETTINGS
350
19
  3
ACAD_PLOTSTYLENAME
350
E
  3
ACDBHEADERROUNDTRIPXREC
350
1C4F
  3
ACDBVARIABLEDICTIONARY
350
5E
  0
DICTIONARY
  5
1BBF
330
1F
100
AcDbDictionary
280
     1
  3
ACAD_LAYOUTSELFREF
360
1C70
  0
DICTIONARY
  5
1BC1
330
1B55
100
AcDbDictionary
280
     1
  3
ACAD_LAYOUTSELFREF
360
1C71
  0
DICTIONARY
  5
1BB5
330
1B5C
100
AcDbDictionary
280
     1
  3
ACAD_XREC_ROUNDTRIP
360
1BB6
  0
DICTIONARY
  5
1BB7
330
1B5E
100
AcDbDictionary
280
     1
  3
ACAD_XREC_ROUNDTRIP
360
1BB8
  0
DICTIONARY
  5
6B
102
{ACAD_REACTORS
330
C
102
}
330
C
100
AcDbDictionary
  0
DICTIONARY
  5
D
102
{ACAD_REACTORS
330
C
102
}
330
C
100
AcDbDictionary
  0
DICTIONARY
  5
1A
102
{ACAD_REACTORS
330
C
102
}
330
C
100
AcDbDictionary
  0
DICTIONARY
  5
6A
102
{ACAD_REACTORS
330
C
102
}
330
C
100
AcDbDictionary
  0
DICTIONARY
  5
17
102
{ACAD_REACTORS
330
C
102
}
330
C
100
AcDbDictionary
  3
STANDARD
350
18
  0
DICTIONARY
  5
19
102
{ACAD_REACTORS
330
C
102
}
330
C
100
AcDbDictionary
  0
ACDBDICTIONARYWDFLT
  5
E
102
{ACAD_REACTORS
330
C
102
}
330
C
100
AcDbDictionary
281
     1
  3
Normal
350
F
100
AcDbDictionaryWithDefault
340
F
  0
DICTIONARY
  5
1C4F
102
{ACAD_REACTORS
330
C
102
}
330
C
100
AcDbDictionary
  3
CEPSNTYPE
350
1C59
  3
DIMSTYLEDATA
350
1C5D
  3
FINGERPRINTGUID
350
1C5A
  3
HYPERLINKBASE
350
1C52
  3
INSUNITS
350
1C58
  3
LAYOUTDICT
350
1C54
  3
LWETCUNION
350
1C57
  3
PLOTSETDICT
350
1C55
  3
PLOTSTYLNAMDICT
350
1C56
  3
PSVPSCALE
350
1C5C
  3
PUCSBASE
350
1C60
  3
PUCSORGBACK
350
1C66
  3
PUCSORGBOTTOM
350
1C62
  3
PUCSORGFRONT
350
1C65
  3
PUCSORGLEFT
350
1C63
  3
PUCSORGRIGHT
350
1C64
  3
PUCSORGTOP
350
1C61
  3
PUCSORTHOREF
350
1C5E
  3
PUCSORTHOVIEW
350
1C5F
  3
STYLESHEET
350
1C53
  3
TSTACKALIGN
350
1C50
  3
TSTACKSIZE
350
1C51
  3
UCSBASE
350
1C69
  3
UCSORGBACK
350
1C6F
  3
UCSORGBOTTOM
350
1C6B
  3
UCSORGFRONT
350
1C6E
  3
UCSORGLEFT
350
1C6C
  3
UCSORGRIGHT
350
1C6D
  3
UCSORGTOP
350
1C6A
  3
UCSORTHOREF
350
1C67
  3
UCSORTHOVIEW
350
1C68
  3
VERSIONGUID
350
1C5B
  0
DICTIONARY
  5
5E
102
{ACAD_REACTORS
330
C
102
}
330
C
100
AcDbDictionary
  3
DIMASSOC
350
5F
  3
HIDETEXT
350
63
  3
PROJECTNAME
350
1BB9
  0
XRECORD
  5
1C70
102
{ACAD_REACTORS
330
1BBF
102
}
330
1BBF
100
AcDbXrecord
340
1F
  0
XRECORD
  5
1C71
102
{ACAD_REACTORS
330
1BC1
102
}
330
1BC1
100
AcDbXrecord
340
1B55
  0
XRECORD
  5
1BB6
102
{ACAD_REACTORS
330
1BB5
102
}
330
1BB5
100
AcDbXrecord
102
SHADEPLOT
 70
     0
  0
XRECORD
  5
1BB8
102
{ACAD_REACTORS
330
1BB7
102
}
330
1BB7
100
AcDbXrecord
102
SHADEPLOT
 70
     0
  0
MLINESTYLE
  5
18
102
{ACAD_REACTORS
330
17
102
}
330
17
100
AcDbMlineStyle
  2
STANDARD
 70
     0
  3

 62
   256
 51
90.0
 52
90.0
 71
     2
 49
0.5
 62
   256
  6
BYLAYER
 49
-0.5
 62
   256
  6
BYLAYER
  0
ACDBPLACEHOLDER
  5
F
102
{ACAD_REACTORS
330
E
102
}
330
E
100
AcDbPlaceHolder
280
     0
  0
XRECORD
  5
1C59
102
{ACAD_REACTORS
330
1C4F
102
}
330
1C4F
100
AcDbXrecord
 90
        0
  0
XRECORD
  5
1C5D
102
{ACAD_REACTORS
330
1C4F
102
}
330
1C4F
100
AcDbXrecord
1000
DSTYLE
1002
{
1070
   278
 70
    44
1070
   289
 70
     2
1070
   341
340
100
1070
   342
340
FA
1002
}
  0
XRECORD
  5
1C5A
102
{ACAD_REACTORS
330
1C4F
102
}
330
1C4F
100
AcDbXrecord
  1
{FDEAD578-A652-11D2-9A35-0060089B3A3F}
  0
XRECORD
  5
1C52
102
{ACAD_REACTORS
330
1C4F
102
}
330
1C4F
100
AcDbXrecord
  1

  0
XRECORD
  5
1C58
102
{ACAD_REACTORS
330
1C4F
102
}
330
1C4F
100
AcDbXrecord
 90
        4
  0
XRECORD
  5
1C54
102
{ACAD_REACTORS
330
1C4F
102
}
330
1C4F
100
AcDbXrecord
340
1A
  0
XRECORD
  5
1C57
102
{ACAD_REACTORS
330
1C4F
102
}
330
1C4F
100
AcDbXrecord
 90
    10781
  0
XRECORD
  5
1C55
102
{ACAD_REACTORS
330
1C4F
102
}
330
1C4F
100
AcDbXrecord
340
19
  0
XRECORD
  5
1C56
102
{ACAD_REACTORS
330
1C4F
102
}
330
1C4F
100
AcDbXrecord
340
E
  0
XRECORD
  5
1C5C
102
{ACAD_REACTORS
330
1C4F
102
}
330
1C4F
100
AcDbXrecord
 40
0.0
  0
XRECORD
  5
1C60
102
{ACAD_REACTORS
330
1C4F
102
}
330
1C4F
100
AcDbXrecord
340
0
  0
XRECORD
  5
1C66
102
{ACAD_REACTORS
330
1C4F
102
}
330
1C4F
100
AcDbXrecord
 10
0.0
 20
0.0
 30
0.0
  0
XRECORD
  5
1C62
102
{ACAD_REACTORS
330
1C4F
102
}
330
1C4F
100
AcDbXrecord
 10
0.0
 20
0.0
 30
0.0
  0
XRECORD
  5
1C65
102
{ACAD_REACTORS
330
1C4F
102
}
330
1C4F
100
AcDbXrecord
 10
0.0
 20
0.0
 30
0.0
  0
XRECORD
  5
1C63
102
{ACAD_REACTORS
330
1C4F
102
}
330
1C4F
100
AcDbXrecord
 10
0.0
 20
0.0
 30
0.0
  0
XRECORD
  5
1C64
102
{ACAD_REACTORS
330
1C4F
102
}
330
1C4F
100
AcDbXrecord
 10
0.0
 20
0.0
 30
0.0
  0
XRECORD
  5
1C61
102
{ACAD_REACTORS
330
1C4F
102
}
330
1C4F
100
AcDbXrecord
 10
0.0
 20
0.0
 30
0.0
  0
XRECORD
  5
1C5E
102
{ACAD_REACTORS
330
1C4F
102
}
330
1C4F
100
AcDbXrecord
340
0
  0
XRECORD
  5
1C5F
102
{ACAD_REACTORS
330
1C4F
102
}
330
1C4F
100
AcDbXrecord
 70
     0
  0
XRECORD
  5
1C53
102
{ACAD_REACTORS
330
1C4F
102
}
330
1C4F
100
AcDbXrecord
  1

  0
XRECORD
  5
1C50
102
{ACAD_REACTORS
330
1C4F
102
}
330
1C4F
100
AcDbXrecord
 90
        1
  0
XRECORD
  5
1C51
102
{ACAD_REACTORS
330
1C4F
102
}
330
1C4F
100
AcDbXrecord
 90
       70
  0
XRECORD
  5
1C69
102
{ACAD_REACTORS
330
1C4F
102
}
330
1C4F
100
AcDbXrecord
340
0
  0
XRECORD
  5
1C6F
102
{ACAD_REACTORS
330
1C4F
102
}
330
1C4F
100
AcDbXrecord
 10
0.0
 20
0.0
 30
0.0
  0
XRECORD
  5
1C6B
102
{ACAD_REACTORS
330
1C4F
102
}
330
1C4F
100
AcDbXrecord
 10
0.0
 20
0.0
 30
0.0
  0
XRECORD
  5
1C6E
102
{ACAD_REACTORS
330
1C4F
102
}
330
1C4F
100
AcDbXrecord
 10
0.0
 20
0.0
 30
0.0
  0
XRECORD
  5
1C6C
102
{ACAD_REACTORS
330
1C4F
102
}
330
1C4F
100
AcDbXrecord
 10
0.0
 20
0.0
 30
0.0
  0
XRECORD
  5
1C6D
102
{ACAD_REACTORS
330
1C4F
102
}
330
1C4F
100
AcDbXrecord
 10
0.0
 20
0.0
 30
0.0
  0
XRECORD
  5
1C6A
102
{ACAD_REACTORS
330
1C4F
102
}
330
1C4F
100
AcDbXrecord
 10
0.0
 20
0.0
 30
0.0
  0
XRECORD
  5
1C67
102
{ACAD_REACTORS
330
1C4F
102
}
330
1C4F
100
AcDbXrecord
340
0
  0
XRECORD
  5
1C68
102
{ACAD_REACTORS
330
1C4F
102
}
330
1C4F
100
AcDbXrecord
 70
     0
  0
XRECORD
  5
1C5B
102
{ACAD_REACTORS
330
1C4F
102
}
330
1C4F
100
AcDbXrecord
  1
{C3393CB8-B791-473F-AFA4-131B1D993374}
  0
DICTIONARYVAR
  5
5F
102
{ACAD_REACTORS
330
5E
102
}
330
5E
100
DictionaryVariables
280
     0
  1
2
  0
DICTIONARYVAR
  5
63
102
{ACAD_REACTORS
330
5E
102
}
330
5E
100
DictionaryVariables
280
     0
  1
1
  0
DICTIONARYVAR
  5
1BB9
102
{ACAD_REACTORS
330
5E
102
}
330
5E
100
DictionaryVariables
280
     0
  1

  0
ENDSEC
  0
EOF
